Kane - Fearless Chords & Tabs

 

Fearless Chords & Tabs

Kane Chords & Tabs

Version: 1 Type: Tab 0 ratings
1 star 2 stars 3 stars 4 stars 5 stars
comments

Fearless Tab

Solo Fearless - Kane


e|-------------------------------------5-----7--6-------------|
B|-6--8--6--4--3--4--1--3------/1/3/6-----6--------2--2-------|
G|------------------------3--3/-------------------------------| 2x
D|------------------------------------------------------------|
A|------------------------------------------------------------|
E|------------------------------------------------------------|
[ Tab from: http://www.guitartabs.cc/tabs/k/kane/fearless_tab.html ]
e|-----5--10/8\10--13--10--13--10--8--------------------------|
B|--6---------------------------------------------------------|
G|------------------------------------------------------------| 4x  
D|------------------------------------------------------------|    
A|------------------------------------------------------------|    
E|------------------------------------------------------------|
The second, third an fourth time he playes somethinge else but on theyes tabs.

Made by Thomas Slagter.
 Copyright
For more questions you can mail to: thomas_phomas@hotmail.com

.::!!::.
Comments