Kamikazee - Ung Tagalog Chords & Tabs

 

Ung Tagalog Chords & Tabs

Kamikazee Chords & Tabs

Version: 7 Type: Tab 0 ratings
1 star 2 stars 3 stars 4 stars 5 stars
comments

Ung Tagalog Tab

Song: Ung Tagalog
Band: Kamikazee

Adlib: 
E|---------------------------------------------------------------|
B|--5555-4-5-5555-4-5-5555-4-5s7-5-4-5-5555-4-5-5555-4-5-5555-4--|
G|---------------------------------------------------------------|
D|---------------------------------------------------------------|
A|---------------------------------------------------------------|
E|---------------------------------------------------------------|

(mabilis dapat 'to)
E|-------------------------|
B|--5p4---4-5-4---4-5-4-5--|
G|------4-------4----------|
D|-------------------------|
A|-------------------------|
E|-------------------------|

Yan...gawin nyo lang ng 2 beses yan pagkatapos ng chorus. Eto naman yung sa outro:
[ Tab from: http://www.guitartabs.cc/tabs/k/kamikazee/ung_tagalog_tab_ver_7.html ]
Outro:
E|---------------------------------------------------------------|
B|--5555-4-5-5555-4-5-5555-4-5s7-5-4-5-5555-4-5-5555-4-5-5555-4--|
G|---------------------------------------------------------------|
D|---------------------------------------------------------------|
A|---------------------------------------------------------------|
E|---------------------------------------------------------------|

E|-------------------------|
B|--5p4---4-5-4---4-5-4-5--|
G|------4-------4----------|
D|-------------------------|
A|-------------------------|
E|-------------------------|

E|------------------------------------------------------77777--|
B|--5555-4-5-5555-4-5-5555-4-5s7-5-4-5-10-9-7-9-10-9-10--------|
G|-------------------------------------------------------------|
D|-------------------------------------------------------------|
A|-------------------------------------------------------------|
E|-------------------------------------------------------------|

E|-------------------7--\ -----------------------------|
B|--10-9-7-9-10-9-10---- \ ------10-9-7-9-10-9-10-9-5--|
G|----------------------  \  --------------------------|
D|----------------------  / 7x ------------------------|
A|---------------------- /   --------------------------|
E|----------------------/ -----------------------------|

Pag may nakita kayong mali, I-send nyo lang yung comments nyo sa leugim_anoll@yahoo.com
Comments