Kamikazee - Ung Tagalog Chords & Tabs

 

Ung Tagalog Chords & Tabs

Kamikazee Chords & Tabs

Version: 6 Type: Tab 0 ratings
1 star 2 stars 3 stars 4 stars 5 stars
comments

Ung Tagalog Tab

   
URL:an unsigned band from philippines
song:ung tagalog              leander_85@yahoo.com
artist:kamikaze               text/call 09193216020
tabbed by:leander m.       murahin nyo ko kung mali ito

Intro:
guitar II:(part I)
E|-----------------------------------|
B|-----------------------------------|
G|-----------------------------------|
D|-----------------------------------|
A|--5/7-7-7-7/9-9-9-9/11-9/11-11/12--|
E|-----------------------------------|

guitar I:(part II)
E|----------------------|--0-0-0-0-2-2-2-2--|
B|----------------------|--2-2-2-2-3-3-3-3--|
G|--9-7-xx-9-xx-9-xx-9--|--2-2-2-2-2-2-2-2--|
D|--9-7-xx-9-xx-9-xx-9--|--2-2-2-2----------|
A|--7---xx-7-xx-7-xx-7--|--0-0-0-0----------|
E|--0---xx-0-xx-0-xx-0--|--0-0-0-0----------|

guitar I&II:E5-A5-D5
(part III)
E|--7-7-7-7-7-7-7-7-----------5-5-5-5--|
B|--9-9-9-9-9-9-9-9-----------7-7-7-7--|
G|--9-9-9-9-9-9-9-9-----------7-7-7-7--|(2x)
D|--9-9-9-9-9-9-9-9--7-7-7-7--7-7-7-7--|
A|--7-7-7-7-7-7-7-7--7-7-7-7--5-5-5-5--|
E|--0-0-0-0-0-0-0-0--5-5-5-5--0-0-0-0--|

on 2nd time repeat intro part I
let ring:E5

riff I:E5-B5-C#-Ab-A5-Ab-B5

stanza:(same chord as riff I)please check this if correct
E5             B5 C#
sampung taon na kong nanliligaw sayo
D5 Ab A                            Ab-B5
  at hindi ko na malaman kung ano ang gusto mo
E                         B5 C#
nagmumuka na akong katulong,driver at alalay mo
D5 Ab A           Ab B5
  bawat araw ng linggo,Inaraw araw mo


Interlude:E5-B5-C#-A-5-Ab-A5-B5
E5             B5 C#
akala ko pa noon ay may pag-asa sayo
Ab A5                 A5 Ab    B5 
dahil sa iyong sinabi na maghintay lang ako
   E5                   B5 C#
ngunit isang araw nagulat ng naglalakad ako
Ab A5             Ab A5    B5 
may kasama kang iba,nakayakap pa sayo
[ Tab from: http://www.guitartabs.cc/tabs/k/kamikazee/ung_tagalog_tab_ver_6.html ]
refrain:E5-A5-C#-B5
E5    A5     C#     B5  
sana ay hindi na umasa pa
E5    A5     C#     B5 
mukha tuloy akong tanga
E5    A5     C#     B5 
noon pa man ay mahal ka na
E5    A5     C#     B5
nagunit sinayang sa wala
Interlude:E5-B5-C#-A5-Ab-A5-B5
guitar II:
E|--------------------------------|-----------------------------------|
B|--------------------------------|-----------------------------------|
G|--9-8-9--9-8-9--9-8-9-11-9-8-9--|--9-8-9--9-8-9--9-8-9p8---8h9p8----|(2x)
D|--------------------------------|------------------------9-------9--|
A|--------------------------------|-----------------------------------|
E|--------------------------------|-----------------------------------|

bridge:
E|-----------------|--0-0-0-0--|
B|-----------------|--9-9-9-9--|
G|------9-----9----|--9-9-9-9--|
D|----9---9-----9--|--9-9-9-9--|
A|--7-------7------|--7-7-7-7--|
E|-----------------|--0-0-0-0--|

palm muted part:E5-C#-A5-B5
bridge:
pakinggan sana aking sasabihin   ]part of
ayoko ng ulitin,makinig ka na    ]plucking
kung biglaan,ikay aking Iwanan               ]palm muted
sana'y di mo makayanan mamatay ka na(4x)agad ]  part

InterlideII:E5-B5-C#-Ab-A-Ab-B5
E|----------------------------------------------|
B|--9999999999(I dont know how many 9's there)--|
G|----------------------------------------------|
D|----------------------------------------------|
A|----------------------------------------------|
E|----------------------------------------------|

strum like riff I
tama bang umasa pa at maghintay pa sa wala
tama bang niloko mo sinayang mo ang oras ko
bakit ka ganyan wala ka bang nadarama
bakit ba niloko mo sinayang mo ang oras ko
repeat Interlude
(guitarII)
E|--------------------------------------------------------------
B|--------------------------------------------------------------
G|--8-9-8--8-9-8--8-9-8-11-8-9-8--8-9-8--8-9-8--8-9-8-11-8-9-8--
D|--------------------------------------------------------------
A|--------------------------------------------------------------
E|--------------------------------------------------------------

----------------------------------------------------------------|
--10-9-7-9-10-9-7-9-12-10-9-7-9-10-9-7-9-10-9-7-9---10-9-7-9----|
--------------------------------------------------9----------9--|
----------------------------------------------------------------|
----------------------------------------------------------------|
----------------------------------------------------------------|

tabbed by:leander_85@yahoo.com
                                   !! end !!
Comments