Kamikazee - Sobrang Init Chords & Tabs

 

Sobrang Init Chords & Tabs

Kamikazee Chords & Tabs

Version: 1 Type: Tab

Sobrang Init Tab

Title: Sobrang Init
Artist: Kamikazee
Album: Maharot
Tabbed by: Martin Jose
Date: February 13, 2005

Pagpasensyahan nah tong tab nah toh... 1st tab koh toh kc... tska wala pah koh
electric guitar...sah acoustic koh lng kinapa...
pero sana maka2long toh.... Kau nah lng bhla maglagay ng palm mute dian... pkinggan
nio kung san nkalgay... Tska p*ta!!!! wlang nkawan ng tab ah! okei? slamatz

Tuning: i-Dropped D moh boi!!!

Intro/Verse:
E|----------|
B|----------|
G|----------|
D|--5/4--3--|
A|--3/2--3--|
D|-------3--|
[ Tab from: http://www.guitartabs.cc/tabs/k/kamikazee/sobrang_init_tab.html ]
Chorus:
E|------------------------------------|
B|------------------------------------|
G|------------------------------------|
D|--10-9-7-9-0-7-10-------3-----------|
A|--10-9-7-9-0-7-10-(8X)--3-----------|
D|--10-9-7-9-0-7-10-------3-----------|

Intro ulit kso lng ung F kaskasin moh nah hah!!

2nd verse:
E|---------------|
B|---------------|
G|---------------|
D|--5/4--3-------|
A|--3/2--3-(4X)--|
D|-------3-------|
tpos gan2... marmi nian...
E|-------------|
B|-------------|
G|-------------|
D|--5/4--xxxx--|
A|--3/2--xxxx--|
D|-------xxxx--|

Breakdown:
...kau nah bhla tol...pinabilis lng un part nah yan...my pagka2iba pro mku2ha nio din yan...

"Tumutulo ang..."
E|-----|
B|-----|
G|-----|
D|--2--|
A|--2--|
D|--2--|
then ung verse riff ulit tol...

slamatz...
dedicated toh sah mga barkada koh...sah mga frends koh sah baste... sah mahal koh nah c 
sah mga tga sanfe!!! un lng... ge tnx... god bless...