Kamikazee - Sana Kahit Minsan Chords & Tabs

 

Sana Kahit Minsan Chords & Tabs

Kamikazee Chords & Tabs

Version: 2 Type: Tab

Sana Kahit Minsan Tab

Song:Sana Kahit Minsan
Album:Kamikazee
Artist:Kamikazee
Date Tabbed:November,2005
Guitar Tabber:Ryan Manongdo/16/m/Montalban Rizal
              no_falter0x@yahoo.com(Friendster&YM)
              
Gtr.Legends:
/\ - slides
p  - pull-off
h  - hammer-on
.  - palm muting
x  - dead string
~  - let it ring

Gtr.Tuning:Standard(Normal)

Intro:
e|-----------------------------|
B|-----------------------------|
G|-5--------------5------------|
D|-5--5555555555--5--5555555---|
A|-3--3333333333--3--3333333---|
E|-----------------------------|
   .  ..........  .  .......

Verse 1:Bakit ikaw nais na....       Minsa'y hinahagka't,yakap yakap kita...      
Gtr.1                             
e|-----------------------------------------------------------------------------------
B|-----------------------------------------------------------------------------------
G|-5-----------7777777777--55555555--------------------------------------------------
D|-5-piclslide-7777777777--55555555--33333--55555--22-22--77777--77777777--5555555---
A|-3-----------5555555555--33333333--33333--55555--22-22--77777--55555555--5555555---
E|-----------------------------------11111--33333--00-00--55555------------3333333---
   .                                               ..

----------------|
----------------|
----------------|
-555555555555---|
-555555555555---|
-333333333333---|
 ............

Gtr.2
e|-----------------------------------------------------------------------------------
B|-----------------------------------------------------------------------------------
G|-5-----------7777777777--55555555------------------------------7777-9999-----------
D|-5-piclslide-7777777777--55555555--33333--55555--22-22--77777--xxxx-xxxx--555555---
A|-3-----------5555555555--33333333--33333--55555--22-22--77777--5555-7777--555555---
E|-----------------------------------11111--33333--00-00--55555-------------333333---
   .                                               ..

-----------------------------|
-----------------------------|
-777/999/111111/1212121212---|
-xxx-xxx--x-x-x-xxxxxxxxxx---|
-555/777/-9-9-9/1010101010---|
-----------------------------|

Verse 2:Pag-nakita kana ni ayaw ng....        Minsa'y hinahagka't,yakap yakap kita....
Gtr.1            
e|--------------------------------------------------------------------------------------
B|--------------------------------------------------------------------------------------
G|-5------------7-----------------------------------------------------------------------
D|-5-555555555--7-77777777-77777777-55555555--33333-5555-22-22-777777-77777777-5555555--
A|-3-333333333--5-55555555-55555555-33333333--33333-5555-22-22-777777-55555555-5555555--
E|--------------------------------------------11111-3333-00-00-555555----------3333333--
     .........    ........ ........ ........             ..

-------------|
-------------|
-------------|
-555555555---|
-555555555---|
-333333333---|
 .........

Gtr.2:
e|---------------------------------------------------------------------------------------
B|---------------------------------------------------------------------------------------
G|-5------------7-----------------------------------------------------7777-9999----------
D|-5-555555555--7-77777777-77777777-55555555--33333-5555-22-22-777777-xxxx-xxxx-5555555--
A|-3-333333333--5-55555555-55555555-33333333--33333-5555-22-22-777777-5555-7777-5555555--
E|--------------------------------------------11111-3333-00-00-555555-----------3333333--
     .........    ........ ........ ........             ..

---------------------|
---------------------|
-777/999/111111/12---|
-xxx-xxx--x-x-x-xx---|
-555/777/-9-9-9/10---|
---------------------|
[ Tab from: http://www.guitartabs.cc/tabs/k/kamikazee/sana_kahit_minsan_tab_ver_2.html ]
Chorus:Sana kahit minsan....
e|-----------------------------------------------       -----------------|
B|-----------------------------------------------       -----------------|
G|----------------------------------------------- 2x    -----------------|
D|-33333-55555-22222-77777-77777-55555-55-55555-- Then  -5~-5~-5~-5~-5---|
A|-33333-55555-22222-77777-55555-55555-33-33333--       -5~-5~-5~-5~-5---|
E|-11111-33333-00000-55555-------33333-----------       -3~-3~-3~-3~-3---|


Verse 1:Bakit ikaw ang nais...
Play Verse 2

Repeat Chorus:

Bridge:(Not Available)

Verse 3:Hanap ng puso...                        Sana'y sabihing...
e|----------------------------------------------------------------------------------------------
B|----------------------------------------------------------------------------------------------
G|-----------------------77-7777-77-----------------------------------77-777-77-----------------
D|-33-333-333-22-222-222-77-7777-77-55-555-55---33-333-333-22-222-222-77-777-77-5555/66666666---
A|-33-333-333-22-222-222-55-5555-55-55-555-55---33-333-333-22-222-222-55-555-55-5555/66666666---
E|-11-111-111-00-000-000------------33-333-33---11-111-111-00-000-000-----------3333/44444444---
   .. ... ... .. ... ... .. .... .. .. ... ..   .. ... ... .. ... ... .. ... ..

--------------------|
--------------------|
--------------------|
-666666-------------|
-666666-pickslide---|
-444444-------------|
 ......

Chorus 2:Sana ay mapansin ako...             Huwag iisiping...
e|-------------------------------------------------------------------------------------
B|-------------------------------------------------------------------------------------
G|----------------3333-8888--------6666666------------------3333-8--------------3333---
D|-4444-6666-3333-3333-8888-6666-6-6666666---4444-6666-3333-3333-8--6-6-6--3333-3333---
A|-4444-6666-3333-1111-6666-6666-4-4444444---4444-6666-3333-1111-6--6-6-6--3333-1111---
E|-2222-4444-1111-----------4444-------------2222-4444-1111---------4-4-4--1111--------
                                                                 .  . . .

Pag-big na alay ko...
------------------|
------------------|
-8888-------------|
-8888-666666666---|
-6666-666666666---|
------444444444---|
          .....

Outro Chorus:Sana kahit minsan...
Gtr.1:
e|----------------            ------|
B|----------------            ------|
G|-666666--------- 4x Then    -6~---|
D|-666666--44444-- Ends with  -6~---|
A|-444444--44444--            -4~---|
E|---------22222--            ------|

Gtr.2:
e|---------------------------------------------------------|
B|---------------------------------------------------------|
G|-66666666666666666-6666-55-666-6666-55-6666-666-55--6~---|
D|-xxxxxxxxxxxxxxxxx-xxxx-xx-xxx-xxxx-xx-xxxx-xxx-xx--6~---|
A|-44444444444444444-4444-33-444-4444-33-4444-444-33--4~---|
E|---------------------------------------------------------|

End...


Sana Kahit Minsan Lyrics:

Verse 1:
Bakit ikaw ang nais na
Matanaw nitong mga mata
Tunay kayang nabighani
Ako sa taglay mong ganda
Nais kong marinig
Malandi mong tinig
Hatid sa aking
Aliw na tila ba
Ito'y hulog man
Lang ng langit

Verse 2:
Pagnakita ka na'y
Ayaw nang kumurap o
Pumikit man lang
Dahil baka mawala kang
Bigla nang hindi ko alam
Minsa'y hinahagka't
Yakap-yakap kita
Ngunit subalit sa tuwing lumalapit
Nanghihinayang lang

Chorus 1:
Sana kahit minsan
Ay mapansin ako
Malaman mong kita'y
Mahal at `yan ay totoo
'wag isiping
Nagbibiro ako
Tunay ang pag-ibig
Na alay sa `yo


Bakit ikaw ang nais na
Matanaw nitong mga mata
Tunay kayang nabighani
Ako sa taglay mong ganda
Minsa'y hinahagka't
Yakap-yakap kita
Ngunit subalit sa tuwing lumalapit
Nanghihinayang lang

Repeat Chorus:

Verse 3:
Hanap ng puso
Ay laging ikaw
Ang tanging nais ko'y
Ang iyong pagmamahal
Sana'y sabihing
Mahal mo rin ako
Ikaw ang tawag ng
Damdamin ko

Chorus 2:
Sana ay mapansin ako
Malaman mong kita'y
Mahal at `yan ay totoo
'wag iisiping
Nagbibiro ako
Tunay ang pag-ibig
Na alay
Ikaw ang nais
Sa habang buhay
Ang pag-ibig na alay ko

Outro Chorus:
Sa `yo'y tunay
Sa `yo'y tunay
Sana kahit minsan
Sana kahit minsan
Sana kahit minsan