Kamikazee - Petix Chords & Tabs

 

Petix Chords & Tabs

Kamikazee Chords & Tabs

Version: 1 Type: Tab

Petix Tab

ito pla ung intro Bass tab. mganda po tong song na to. sobrang cool!! 
Astig!!

Bass Tab
e|---------------------------------------------------|
B|---------------------------------------------------|
G|---------------------------------------------------|
D|---------------------------------------------------|
A|-----5-5-5-2-3-3-2h3-2-0-------5-5-5-2-3-3-3s7-5---|
E|-3-3-----------------------3-3---------------------|
[ Tab from: http://www.guitartabs.cc/tabs/k/kamikazee/petix_tab.html ]
Lead Intro
e|-3--3--3--3--5--3-|-3--3--3--3--5--3-|-3--3--3--3--5--3-|
B|-3--3--3--3--5--3-|-3--3--3--3--5--3-|-3--3--3--3--5--3-|
G|------------------|------------------|------------------|
D|------------------|------------------|------------------|
A|------------------|------------------|------------------|
E|------------------|------------------|------------------|


i would like to thank the following for inspiring me to do this tab..
Izad...Rommel..Chano..Lloyd..Jhayvee..Jemay!!