Kamikazee - Narda Chords & Tabs

 

Narda Chords & Tabs

Kamikazee Chords & Tabs

Version: 1 Type: Bass Tab

Narda Bass Tab

   
Artist  :  Kamikazee
Song Title  :  Narda
Album Title  :  Maharot
Tabbed By  :  Franciz Adolfo
Tuning : Standard ( G D A E )


Intro  : 

G|---------------------------------------------------------------------|
D|---0--0---0---0---0--------------------------------------------------|
A|----------------------2--2---2---2---2-------------------------------|
E|----------------------------------------3--3---3---3---3--5--5---5---|

G|-------------------------------------------------------|
D|-------------------------------------------------------|
A|--555555555---5222222222---2---------------------------|
E|-----------------------------33333333---3555577779999--|

G|----------------------------------------------------|
D|----------------------------------------------------|
A|--555555555---5222222222---2------------------------|
E|----------------------------333333333---3555555555--|

Verse 1  :

G|---------------------------------------------------------------------|
D|---0--0---0---0---0--------------------------------------------------|
A|----------------------2--2---2---2---2-------------------------------| 2x
E|----------------------------------------3--3---3---3---3--5--5---5---|


Pre-Chorus  &  Chorus  :

G|-------------------------------------------------------|
D|-------------------------------------------------------|
A|--555555555---5222222222---2---------------------------| 2x
E|-----------------------------33333333---35555555555----|

Verse 2  :
[ Tab from: http://www.guitartabs.cc/tabs/k/kamikazee/narda_btab.html ]
G|---------------------------------------------------------------------|
D|---0--0---0---0---0--------------------------------------------------|
A|----------------------2--2---2---2---2-------------------------------| 2x
E|----------------------------------------3--3---3---3---3--5--5---5---|

Pre-Chorus  &  Chorus  :

G|-------------------------------------------------------|
D|-------------------------------------------------------|
A|--555555555---5222222222---2---------------------------| 2x
E|-----------------------------33333333---35555555555----|

Adlib  :  

G|---------------------------------------------------------------------|
D|---0--0---0---0---0--------------------------------------------------|
A|----------------------2--2---2---2---2-------------------------------| 
E|----------------------------------------3--3---3---3---3--5--5---5---|


Verse 3  : 'to isang beses lang after ng solo palmuted part ng gitara

G|-------------------------------------------------------|
D|-------------------------------------------------------|
A|--555555555---5222222222---2---------------------------| 
E|-----------------------------33333333---35555555555----|

Pre-Chorus & Chorus  :

G|-------------------------------------------------------|
D|-------------------------------------------------------|
A|--555555555---5222222222---2---------------------------| 2x
E|-----------------------------33333333---35555555555----|

Chorus  : 

G|--------------------------------------------------------|
D|--------------------------------------------------------|
A|--555555555---5222222222---2------------------------5---| 1x
E|-----------------------------33333333---35555555555-----|

        End of Song.......

enjoy playing......
email address...rockiztaciz_bass@yahoo.com...