Kamikazee - Martyr Nyebera Chords & Tabs

 

Martyr Nyebera Chords & Tabs

Kamikazee Chords & Tabs

Version: 1 Type: Bass Tab

Martyr Nyebera Bass Tab

Song:Martyr Nyebera
Album:Maharot
Artist:Kamikazee
Date Tabbed:March,2006
Guitar Tabber:Ryan Manongdo/16/m/Montalban Rizal
              rhyzomes_0X@yahoo.com(Friendster&YM)
              09229015724(Sun Cell)
     
Gtr.Legends
/\ - SLIDE 
~  - LET IT RING
.  - PALM MUTING

Gtr.Tuning:Standard(Normal)
Intro prt.1:
G|---------------------------------------|
D|---------------------------------------| 2x
A|-------5-4---4/555--4/555-4/555-7777---|
E|--5-0----------------------------------|
    . .  . .  

Intro prt.2:
G|---------------------|
D|---------------------| 2x
A|--------55555-77777--|
E|--55555--------------|

Verse:
Kinu-kompleto mo ang araw ko...
G|-------------      ------------|
D|------------- 2x   ------7-6---|
A|----77-55-44- Then ----7-------|
E|-55----------      -55---------|

Pag-gising sa umaga...
G|-------------      ---------------------|
D|------------- 2x   ---------------------|
A|----77-55-44- Then ----77-55-44-7-7-7---|
E|-55----------      -55------------------|
                                  . . .

Pre-Chorus:Play Intro prt.2
At pag-sapit ng gabi...
    
Before Chorus:
G|---------------|
D|---------------|
A|----------5~---|
E|--2~--0~-------|
[ Tab from: http://www.guitartabs.cc/tabs/k/kamikazee/martyr_nyebera_btab.html ]
Chorus:
Ang almusal ay sigawan...
G|--------------------------------------------------------|
D|--------------------------------------------------------| 2x
A|-------7777-4444-5555-------7777-4444-5-4-5-4-5-4-5-----|
E|--5555-----------------5555-------------------------5---|

Repeat Intro prt.1:
Repeat Verse:
Repeat Pre-Chorus:
Repeat Chorus:

Bridge:
G|----------------------------------------|
D|----------------------------------------|
A|-------55555-77777--------55555-7-7-7---|
E|-55555--------------55555---------------|
                                  . . .

G|---------------------------------------------|
D|---------------------------------------------|
A|--------55555-77777--------55555--77-55-44---|
E|--55555--------------55555-------------------|

G|-------------------------------------|
D|-------------------------------------|
A|------------5555-------------5-4-----|
E|--2222-0000-------2222--0000-----5~--|

Acoustic:
Bass Enters(Low Volume)
G|--------------------------------|
D|--------------------------------|
A|------------7777--44444-55555---|
E|--12\2-5555---------------------|

Ending of Bridge:
G|-----------------------------------------|
D|-----------------------------------------|
A|-444-222------000----00-----00--222------|
E|----------444-----44----444---------0~---|

G|------------------------------------|
D|------------------------------------|
A|-444-222----------------------------|
E|----------444-55-44-55-444-555-77---|
                                  .

Repeat Chorus:

Outro:
G|-------------------------------------|
D|-------------------------------------|
A|-------7777-4444-5-4-5-4-5-4-5-------|
E|--5555-------------------------5--5~-|
                                 .

End..