Kamikazee - Kanya Kanyang Kuha Chords & Tabs

 

Kanya Kanyang Kuha Chords & Tabs

Kamikazee Chords & Tabs

Version: 1 Type: Tab

Kanya Kanyang Kuha Tab

Song:KKK
Album:Maharot
Artist:Kamikazee
Date Tabbed:March,2006
Guitar Tabber:Ryan Manongdo/16/m/Montalban Rizal
              no_falter0x@yahoo.com(Friendster&YM)

For your questions or suggestions,just post in friendster comment,PM or mail me.

Gtr.Legends:
. - palm muting
x - dead string
\ - slide
p - pull-off
h - hammer-on

Gtr.Tuning:Drop D(Alternative)

Intro prt.1:
e|-----------|
B|-0--0--0---|
G|-0--0--0---|
D|-0--0--0---|
A|-----------|
D|-----------|
   .  .  .

Intro prt.2:
Gtr.1
e|---------------------------|
B|---------------------------|
G|---------------------------| 4x
D|-----------------666-555---|
A|-0000000000000---666-555---|
D|-0000000000000---666-555---|
   .............

Gtr.2:
e|-------------------------------------|
B|-------------------------------------|
G|---------------------------888-777---| 4x
D|---------------------------xxx-xxx---|
A|-0000-6-5--0000-6-5--0000--666-555---|
D|-0000------0000------0000------------|
   .... . .  .... . .  ....

Verse 1:Sir,baka pwede nating...
Gtr.1:
e|----------------------------------------------------------------|
B|----------------------------------------------------------------|
G|----------------------------------------------------------------|
D|-------------------------------------------0-3-4-3-22-2--22-2---|
A|-0-1-2-0-1-0---0-1-2-0-1-0---0-1-2--0-2-4----------00-0--00-0---|
D|-0-1-2-0-1-0---0-1-2-0-1-0---0-1-2------------------------------|
                                                     .. .  .. .

----------------------------------------------------------------|
----------------------------------------------------------------|
----------------------------------------------------------------|
---------------------------------------0-3-4-3------------------|
-0-1-2-0-1-0--0-1-2-0-1-0--0-1-2-0-2-4---------00-8\2--00-8\2---|
-0-1-2-0-1-0--0-1-2-0-1-0--0-1-2--------------------------------|

----------------------------------------------------------|
----------------------------------------------------------|
----------------------------------------------------------|
---------------------------------------0-3-4-3-222--222---|
-0-1-2-0-1-0--0-1-2-0-1-0--0-1-2-0-2-4---------000--000---|
-0-1-2-0-1-0--0-1-2-0-1-0--0-1-2--------------------------|
                                               ...  ...

Gtr.2:
e|-15-15-15-15----15-15-15-15---|
B|------------------------------|
G|------------------------------|
D|------------------------------|
A|------------------------------|
D|------------------------------|

Pre-Chorus:Pag-tangis ng aming bayan...
e|--------------      -----------|
B|-------------- 7x   -0--0--0---|
G|-------------- Then -0--0--0---|
D|--------------      -0--0--0---|
A|-2-1-2-4-6-4--      -----------|
D|-2-1-2-4-6-4--      -----------|
                       .  .  .

Chorus:Pulitika't pelikula...
Play Intro prt.2

Verse:Naturingan kang may pinag-aralan...
Play Verse 1

Repeat Pre-Chorus:
Repeat Chorus:
[ Tab from: http://www.guitartabs.cc/tabs/k/kamikazee/kanya_kanyang_kuha_tab.html ]
Bridge prt.1:
e|------------------------------------------------------------------------------------------------------|
B|------------------------------------------------------------------------------------------------------|
G|-0~----0~--pickslide----------------------------------------------------------------------------------|
D|-0~----0~---------------------------------------------------------------------------------------------|
A|-0~----0~-------------222-1-2~-222-1-2~--222-1-2~--222-1-2~--222-1-2~--------0------0------0------0---|
D|-0~----0~-------------222-1-2~-222-1-2~--222-1-2~--222-1-2~--222-1-2~---0000-0-0000-0-0000-0-0000-0---|
                        ...      ...       ...       ...       ...        ....   ....   ....  ....


Bridge prt.2:
Gtr.1
e|------------------------|
B|------------------------| Listen to the song well for the timing...
G|------------------------|
D|------------------------|
A|-00--000--00--000--00---|
D|-00--000--00--000--00---|
   ..  ...  ..  ...  ..

Gtr.2 Enters:Masarap tamasan...
e|------------------------------------------------------------------------------------------|
B|--------------------------------------------1-2-4-1-2-1-2-1-2------1-2-4-1-2-1-2-1--------|
G|-3-4-2p1-2p1-2p1-2p1--3-4-2p1-2p1-2p1-2p1---------------------1h2-------------------1h2---|
D|------------------------------------------------------------------------------------------|
A|------------------------------------------------------------------------------------------|
D|------------------------------------------------------------------------------------------|

Masasagip kaba...
e|----------------------------------|
B|-----0----------0---------0-------|
G|-----0----------0---------0-------|
D|----------------------------------|
A|-000---000--000---000-000---000---|
D|-000---000--000---000-000---000---|
   ...   ...  ...   ... ...   ...

Repeat Pre-Chorus:

Repeat Chorus:

Outro:
Gtr.1
e|---------------------------------|
B|---------------------------------|
G|---------------------------------|
D|-----------------------666-555---|
A|-000000000000000000000-666-555---|
D|-000000000000000000000-666-555---|
   .....................

Gtr.2:
e|---------------------------------|
B|---------------------------------|
G|-----------------------888-777---|
D|-----------------------xxx-xxx---|
A|-0000-6-5-6-8-6-5-6-8--666-555---|
D|-0000----------------------------|
   .... . . . . . . . .

End...

KKK Lyrics:

Verse 1:
Sir,baka pwede nating pag-usapan ang aking kasalananan baka pwedeng kalimutan
Sa bawat sulok ng aking lipunan di ko halos nababayaran pabor kay ganito,pabor kay ganyan
Kapalit na tulong ay  utang-utang-utang-utang Pag-dating ng singilan utang na loob ang
Kabayaran nasan na ang mga bayani tuluyn na silang nabaon sa nkraan

Pre-Chorus:
Pag-tangis ng aming bayan
Dama ng aming kahirapan

Chorus:
Pulitika't pelikula tila iisa matirang matibay karnabal na sistema
Lahat gusto kumita,mag-paikot ns storya sa aming paningin lahat ay kontra bida
Na-uulol kumakahol bumubula ang laway,lumalabas ang pangil,tumutubo ang sungay
Espadahan ng salita sino ang kawawa?(lahat daw sila'y tama)lahat kami kawawa

Verse 2:
Naturingan kang may pinag-aralan ngunit bakit ikaw ang dahilan ng kaguluhan?
Nais lang ni Juan mabuhay ng karaniwan,may kasaganahan at bubong na masisilungan
Para saan ang sinumpaan kung babaliin din naman.Masakit isipin na mababoy ang bayang kinalakihan
Ilagay mo ang iyong kamay sa tapat ng iyong puso saba'y sabi mong ang mamatay ng dahil sayo

Repeat Pre-Chorus:
Repeat Chorus:

Bridge:
Masasagip kaba(4x)