Kamelot - The Shadow Of Uther Chords & Tabs

 

The Shadow Of Uther Chords & Tabs

Kamelot Chords & Tabs

Version: 1 Type: Tab 0 ratings
1 star 2 stars 3 stars 4 stars 5 stars
comments

The Shadow Of Uther Tab

The Shadow of Uther

by Kamelot
>From the album 'The Fourth Legacy'
Transcribed by: Marcel Germain
Email: metalforever2000@yahoo.com
You will find every tab you need ONLY in METAL FOREVER:
    ______________________________________
   |					  |
   | http://www.metalforever.bizland.com/ |
   |______________________________________|

Well I realised that I couldn't find any Kamelot tabs in the net,
so I took this great song and tried to get it trascribed.
This is my first tab and I'm not too sure about it,
so PLEASE if you find any mistakes e-mail me!




 This is the intro riff. It is played many times throughout the song by
 different instruments (I think there are some violins). This is the guitar
part.
 It is very fun to play!
|-----------------------------------------------------0---------------------
|
|-----------------0-----------------1--------------------3-6-5--------------
|
|---------------------------------------------------------------0h4h5p4v----
|
|---------0h2h5--------------0h2h5-------------0h2h5------------------------
|
|--0h2h3--------------0h2h3-------------0h2h3-------------------------------
|
|---------------------------------------------------------------------------
|
[ Tab from: http://www.guitartabs.cc/tabs/k/kamelot/the_shadow_of_uther_tab.html ]
|---------------------------------------------------------------------------
|
|-----------------0-----------------1-----------------3---------------------
|
|-------------------------------------------------------5-4-5--5p4p2h4------
|
|---------0h2h5--------------0h2h5-------------0h2h5------------------------
|
|--0h2h3--------------0h2h3-------------0h2h3-------------------------------
|
|---------------------------------------------------------------------------
|


I think the verse is only drums & bass.


 This is another riff from the song. The vocals sing above it after the
solo:
 (Played many times)
||-------------------------------12-10h12p10------10------------------------
|
||-----------------/10-13-13-13---------------13------13-12-10-12-13--------
|
||-o--/9-12-12-12-----------------------------------------------------10v---
|
||-o------------------------------------------------------------------------
|
||--------------------------------------------------------------------------
|
||--------------------------------------------------------------------------
|

|------------------------13--12-10h12p10------10-------------------||
|-------------/10-12-13-------------------13------13-12-10v--------||
|-/9-12-12-12----------------------------------------------------o-||
|----------------------------------------------------------------o-||
|------------------------------------------------------------------||
|------------------------------------------------------------------||


I'm sorry, but I haven't transcribed the other parts yet.
Maybe I'll do it some other day.
Comments