Kamelot - Siege Chords & Tabs

 

Siege Chords & Tabs

Kamelot Chords & Tabs

Version: 1 Type: Tab 0 ratings
1 star 2 stars 3 stars 4 stars 5 stars
comments

Siege Tab

Key:
s-slide
h-hammer on
p-pull off
[ Tab from: http://www.guitartabs.cc/tabs/k/kamelot/siege_tab.html ]
This is the very first guitar part in the song. I havnt been able to tab the solo later in it yet. EnjoY!
e|------------------------------|
B|-----------------5-3-1-1------|
G|----------5-5454---------2s4--|
D|--2-2-5s7---------------------|
A|------------------------------|
E|------------------------------|

e|----------------------3-1-0-0----|
B|----------5-5p3h5p3h5---------3--|
G|--0-0h4s7------------------------|
D|---------------------------------|
A|---------------------------------|
E|---------------------------------|
Comments