Kalmah - Hades Chords & Tabs

 

Hades Chords & Tabs

Kalmah Chords & Tabs

Version: 2 Type: Tab 0 ratings
1 star 2 stars 3 stars 4 stars 5 stars
comments

Hades Tab

Tabbed by rotem kellner aka blasphemy- blas@012.net.il
Heroes to us intro:
s=slide
sc=scream

Lead guitar:
| | | | | |
Second Guitar:

----------------------------------------------------------------------------|
----------------------------------------------------------------------------|
------------------------------------------------------------14-----12-------|
--s12---15-14--15--14--12------12------s12--15--14---12-15-----15-----14----|
---------------------------15-----------------------------------------------|
----------------------------------------------------------------------------|

||||||||||||||||||||||||||||||||||||||||||||||||||||||||||||||||||||||||||||||

----------------------------------------------------------------------------|
----------------------------------------------------------------------------|
--7------------------------------5----5-------------------------------------|
--7------------------------------5----7-------------------------------------|
--5------------------------------3----7-------------------------------------|
----------------------------------------------------------------------------|

---------------------------------------------------------------------------|
---------------------------------------------------------------------------|
---------------------------------------------------------------------------|
--s12---15-14--15--14--12------12-----8-8--101010101010--------------------|
---------------------------15---------8-8--101010101010--------------------|
--------------------------------------6-6--8-8-8-8-8-8---------------------|

||||||||||||||||||||||||||||||||||||||||||||||||||||||||||||||||||||||||||

--------------------------------------------------------------------------------------|
--------------------------------------------------------------------------------------|
--7-----------------------------------3-3--55555555555--------------------------------|
--7-----------------------------------3-3--55555555555--------------------------------|
--5-----------------------------------1-1--33333333333--------------------------------|
--------------------------------------------------------------------------------------|

-----------------------------------------------------------------------------------|
-----------------------------------------------------------------------------------|
--------------------------------------------------------------14-----12(sc)--12----|(sc)
--s12---15-14--15--14--12------12----s12--15--14---12--15--------15----------------|
---------------------------15------------------------------------------------------|
-----------------------------------------------------------------------------------|

||||||||||||||||||||||||||||||||||||||||||||||||||||||||||||||||||||||||||||||

----------------------------------------------------------------------------|
----------------------------------------------------------------------------|
--7------------------------------5----5-------------------------------------|
--7------------------------------5----7-------------------------------------|
--5------------------------------3----7-------------------------------------|
----------------------------------------------------------------------------|


---------------------------------------------------------------------------|
---------------------------------------------------------------------------|
---------------------------------------------------------------------------|
--s12---15-14--15--14--12------12-----8 8--101010101010--------------------|
---------------------------15---------8 8- 101010101010--------------------|
--------------------------------------6-6--8-8-8-8-8-8---------------------|

||||||||||||||||||||||||||||||||||||||||||||||||||||||||||||||||||||||||||
[ Tab from: http://www.guitartabs.cc/tabs/k/kalmah/hades_tab_ver_2.html ]
-----------------------------------------------------------------------------------------|
-----------------------------------------------------------------------------------------|
--7-----------------------------------3-3--55555555555-----------------------------------|
--7-----------------------------------3-3--55555555555-----------------------------------|
--5-----------------------------------1-1--33333333333-----------------------------------|
-----------------------------------------------------------------------------------------|


-------------------------------------------------------------------------------|
-------------------------------------------------------------------------------|
--------------------------------------------------------------14-----12--------|
--s12---15-14--15--14--12------12----s12--15--14---12--15--------15-----14-----|
---------------------------15--------------------------------------------------|
-------------------------------------------------------------------------------|

||||||||||||||||||||||||||||||||||||||||||||||||||||||||||||||||||||||||||||||
YO 2Nd Guitarist.Strike chords more.
----------------------------------------------------------------------------|
----------------------------------------------------------------------------|
--7------------------------------5----5-------------------------------------|
--7------------------------------5----7-------------------------------------|
--5------------------------------3----7-------------------------------------|
----------------------------------------------------------------------------|


----------------------------------------------------------------------------|
----------------------------------------------------------------------------|
----------------------------------------------------------------------------|
--s12---15-14--15--14--12------12-----8 8--101010101010---------------------|
---------------------------15---------8 8- 101010101010---------------------|
--------------------------------------6 6--8-8-8-8-8-8----------------------|


||||||||||||||||||||||||||||||||||||||||||||||||||||||||||||||||||||||||||

-----------------------------------------------------------------------------|
-----------------------------------------------------------------------------|
--7-----------------------------------3-3--55555555555-----------------------|
--7-----------------------------------3-3--55555555555-----------------------|
--5-----------------------------------1-1--33333333333-----------------------|
-----------------------------------------------------------------------------|

------------------------------------------------------------------------------|
------------------------------------------------------------------------------|
--------------------------------------------------------------14-----12-------|
--s12---15-14--15--14--12------12----s12--15--14---12--15--------15-----------|
---------------------------15-------------------------------------------------|
------------------------------------------------------------------------------|

||||||||||||||||||||||||||||||||||||||||||||||||||||||||||||||||||||||||||||||

----------------------------------------------------------------------------|
----------------------------------------------------------------------------|
--7------------------------------5----5-------------------------------------|
--7------------------------------5----7-------------------------------------|
--5------------------------------3----7-------------------------------------|
----------------------------------------------------------------------------|

---------------------------------------------------------------------------|
---------------------------------------------------------------------------|
---------------------------------------------------------------------------|
--s12---15-14--15--14--12------12-----8 8--101010101010--------------------|
---------------------------15---------8 8- 101010101010--------------------|
--------------------------------------6 6--8-8-8-8-8-8---------------------|

||||||||||||||||||||||||||||||||||||||||||||||||||||||||||||||||||||||||||

----------------------------------------------------------------------------|
----------------------------------------------------------------------------|
--7-----------------------------------3-3--55555555555----------------------|
--7-----------------------------------3-3--55555555555----------------------|
--5-----------------------------------1-1--33333333333----------------------|
----------------------------------------------------------------------------|
Comments