Kalapana - The Hurt Chords & Tabs

 

The Hurt Chords & Tabs

Kalapana Chords & Tabs

Version: 1 Type: Tab 0 ratings
1 star 2 stars 3 stars 4 stars 5 stars
comments

The Hurt Tab

   
#----------------------------------PLEASE NOTE--------------------------------#
#This file is the author's own work and represents their interpretation of the#
#song. You may only use this file for private study, scholarship, or research.#
#-----------------------------------------------------------------------------#

Date: Wed, 20 May 1998 11:30:51 +0800
From: carlix 
Subject: k/kalapana/the_hurt.crd


				"The Hurt"
			Music and Words by: Kalapana
			Tab by: Banjo "Blue" Donila


 ##########
 +KALAPANA+
 ##########

	Tang Ina ng mga to' a good expression of mine whenever i hear this song
I hope I could help some ppl's all over the net. So gotta go cya guys. e-mail
me for more request!!! tnx tang inang mga archivist to'

Chords:
A#sus4		    AM7           C#m7		     F#m/D		E7
 =========== VI ===========    =========== IV     =========== V     ===========
 |-|-|-|-*-*    |-|-*-|-|-|    |-*-|-*-|-*        |-*-|-|-|-*       |-|-|-*-|-|
 |-|-|-|-|-|    |-*-|-*-|-|    |-|-|-|-*-|        |-|-|-*-|-|       |-*-|-|-|-|
 |-*-*-*-|-|    |-|-|-|-|-|    |-|-*-|-|-|        |-|-*-|-*-|       |-|-|-|-|-|
 |-|-|-|-|-|    |-|-|-|-|-|    |-|-|-|-|-|        |-|-|-|-|-|       |-|-|-|-|-|
 ===========    ===========    ===========        ===========       ===========

F#7		    A		   E7sus4 	     F#m	         Bm7
 ===========    =========== V   ===========       ===========      ===========
 |-|-|-|-|-|    *-|-|-|-*-*     |-*-|-|-*-|       |-|-|-|-|-|      |-|-|-|-|---|
 *-|-*-*-*-*    |-|-|-*-|-|     |-|-|-|-|-|       |-|-|-*-*-*      |-*-|-*-|---|
 |-|-|-|-|-|    |-*-*-|-|-|     |-|-* *-|-*       |-|-|-|-|-|      |-|-|-|-*---|
 |-*-|-|-|-|    |-|-|-|-|-|     |-|-|-|-|-|       |-|-|-|-|-|      |-|-*-|-|---|
 ===========    ===========     ===========       ===========      ===========

=========== V			     DDCATED 2 ALL
|-*-|-*-|-* 			#SCOUTS+ROYALE+BROTHERHOOD#
|-|-|-|-*-|			          &
|-|-*-|-|-|		       -=+[]}ALPHA PHI OMEGA{[]=-
|-|-|-|-|-|
===========


==============================================================================
==============================================================================

Intro

       A#sus4

       D  U D U  D  U D U  D U D U    D  U D U  D  U D U  D U D U
|-|----6--6-x-x--6--6-x-x--6-6-x-x-|--6--6-x-x--6--6-x-x--6-6-x-x-|-|
|*|----6--6-x-x--6--6-x-x--6-6-x-x-|--6--6-x-x--6--6-x-x--6-6-x-x-|*|
|-|----8--8-x-x--8--8-x-x--8-8-x-x-|--8--8-x-x--8--8-x-x--8-8-x-x-|-|
|-|----8--8-x-x--8--8-x-x--8-8-x-x-|--8--8-x-x--8--8-x-x--8-8-x-x-|-|
|*|----8--8-x-x--8--8-x-x--8-8-x-x-|--8--8-x-x--8--8-x-x--8-8-x-x-|*|
|-|--------------------------------|------------------------------|-|
				                OH   YOU  SAY YOUR


  AM7                            C#m7

  D  U D U  D  U D U  D U D U	 D  U D U  D  U D U  D U D U
|-0--0-x-x--0--0-x-x--0-0-x-x--|-4--4-x-x--4--4-x-x--4-4-x-x-|
|-2--2-x-x--2--2-x-x--2-2-x-x--|-5--5-x-x--5--5-x-x--5-5-x-x-|
|-1--1-x-x--1--1-x-x--1-1-x-x--|-4--4-x-x--4--4-x-x--4-4-x-x-|
|-2--2-x-x--2--2-x-x--2-2-x-x--|-7--7-x-x--7--7-x-x--7-7-x-x-|
|-0--0-x-x--0--0-x-x--0-0-x-x--|-4--4-x-x--4--4-x-x--4-4-x-x-|
|------------------------------|-----------------------------|
   MINE                           I  BELIEVE  YOU  EVERY SINGLE

  F#m/D

  D  U D U  D  U D U  D U D U
|-5--5-x-x--5--5-x-x--5-5-x-x-|
|-7--7-x-x--7--7-x-x--7-7-x-x-|
|-6--6-x-x--6--6-x-x--6-6-x-x-|
|-7--7-x-x--7--7-x-x--7-7-x-x-|
|-5--5-x-x--5--5-x-x--5-5-x-x-|
|-----------------------------|
  TIME


  Bm7       E7                    AM7

  D  U D U  D  U D U  D U D U	 D  U D U  D  U D U  D U D U
|-2--2-x-x--0--0-x-x--0-0-x-x--|-0--0-x-x--0--0-x-x--0-0-x-x-|
|-3--3-x-x--0--0-x-x--0-0-x-x--|-2--2-x-x--2--2-x-x--2-2-x-x-|
|-2--2-x-x--1--1-x-x--1-1-x-x--|-1--1-x-x--1--1-x-x--1-1-x-x-|
|-4--4-x-x--0--0-x-x--0-0-x-x--|-2--2-x-x--2--2-x-x--2-2-x-x-|
|-2--2-x-x--2--2-x-x--2-2-x-x--|-0--0-x-x--0--0-x-x--0-0-x-x-|
|------------------------------|-----------------------------|
 EVENTHOUGH YOU SAY YOU'RE NOT MY KIND............I   JUST


  F#7

  D  U D U  D  U D U  D U D U
|-2--2-x-x--2--2-x-x--2-2-x-x---|
|-2--2-x-x--2--2-x-x--2-2-x-x---|
|-2--2-x-x--2--2-x-x--2-2-x-x---|
|-2--2-x-x--2--2-x-x--2-2-x-x---|
|-4--4-x-x--4--4-x-x--4-4-x-x---|
|-2--2-x-x--2--2-x-x--2-2-x-x---|
  CAN'T  BE LIVE YOU'RE NOT MINE

  E7sus4

  D  D  U U U D  D U  D  D  U U U D  D U
|-7--7--7-7-7-7--7-7--7--7--7-7-7-7--7-7-|
|-5--5--5-5-5-5--5-5--5--5--5-5-5-5--5-5-|
|-7--7--7-7-7-7--7-7--7--7--7-7-7-7--7-7-|
|-7--7--7-7-7-7--7-7--7--7--7-7-7-7--7-7-|
|----------------------------------------|
|----------------------------------------|
                         ALL MY FRIENDS ARE

 AM7 				 C#m7

  D  U D U  D  U D U  D U D U	 D  U D U  D  U D U  D U D U
|-0--0-x-x--0--0-x-x--0-0-x-x--|-4--4-x-x--4--4-x-x--4-4-x-x-|
|-2--2-x-x--2--2-x-x--2-2-x-x--|-5--5-x-x--5--5-x-x--5-5-x-x-|
|-1--1-x-x--1--1-x-x--1-1-x-x--|-4--4-x-x--4--4-x-x--4-4-x-x-|
|-2--2-x-x--2--2-x-x--2-2-x-x--|-7--7-x-x--7--7-x-x--7-7-x-x-|
|-0--0-x-x--0--0-x-x--0-0-x-x--|-4--4-x-x--4--4-x-x--4-4-x-x-|
|------------------------------|-----------------------------|
  LAUGHIN'                       SEEING YOU WITH OTHER MEN I'M

  F#7

  D  U D U  D  U D U  D U D U
|-5--5-x-x--5--5-x-x--5-5-x-x-|
|-7--7-x-x--7--7-x-x--7-7-x-x-|
|-6--6-x-x--6--6-x-x--6-6-x-x-|
|-7--7-x-x--7--7-x-x--7-7-x-x-|
|-5--5-x-x--5--5-x-x--5-5-x-x-|
|-----------------------------|
  DYING

  Bm7                            AM7

  D  U D U  D  U D U  D U D U	 D  U D U  D  U D U  D U D U
|-2--2-x-x--0--0-x-x--0-0-x-x--|-0--0-x-x--0--0-x-x--0-0-x-x-|
|-3--3-x-x--0--0-x-x--0-0-x-x--|-2--2-x-x--2--2-x-x--2-2-x-x-|
|-2--2-x-x--1--1-x-x--1-1-x-x--|-1--1-x-x--1--1-x-x--1-1-x-x-|
|-4--4-x-x--0--0-x-x--0-0-x-x--|-2--2-x-x--2--2-x-x--2-2-x-x-|
|-2--2-x-x--2--2-x-x--2-2-x-x--|-0--0-x-x--0--0-x-x--0-0-x-x-|
|------------------------------|-----------------------------|
 CAN'T YOU SEE IN MY EYES I'M CRYIN'...........I   JUST     CAN'T

  F#7       A

  D  U D U  D  U D U  D U D U
|-2--2-x-x--5--5-x-x--5-5-x-x---|
|-2--2-x-x--5--5-x-x--5-5-x-x---|
|-2--2-x-x--4--4-x-x--4-4-x-x---|
|-2--2-x-x--7--7-x-x--7-7-x-x---|
|-4--4-x-x--7--7-x-x--7-7-x-x---|
|-2--2-x-x--5--5-x-x--5-5-x-x---|
   BE LIVE YOU'RE NOT MINE

  E7sus4

  D  D  U U U D  D U  D  D  U U U D  D U
|-7--7--7-7-7-7--7-7--7--7--7-7-7-7--7-7-|
|-5--5--5-5-5-5--5-5--5--5--5-5-5-5--5-5-|
|-7--7--7-7-7-7--7-7--7--7--7-7-7-7--7-7-|
|-7--7--7-7-7-7--7-7--7--7--7-7-7-7--7-7-|
|----------------------------------------|
|----------------------------------------|
			    WOULD.....YOU

  #spoken on 1st time
  *spoken on 2nd time

    AM7        DM7

    D  U D U D U  D U D U  D U D U
|-|-0--x-0-x-x-2--x-2-x-x--2-2-x-x-|-|
|*|-2--x-2-x-x-2--x-2-x-x--2-2-x-x-|*|
|-|-1--x-1-x-x-2--x-2-x-x--2-2-x-x-|-|
|-|-2--x-2-x-x----x---x-x------x-x-|-|
|*|-0--x-0--------x---x-x------x-x-|*|
|-|--------------------------------|-|
 #1.HURT THE   MAN  WHO LOVES YOU WOULD U
 *2.HURT THE   MAN  TODAY!...WOULD YOU

  AM7        F#m                   E7

  D  U D U D U  D U D U  D U D U   D  D  U U U D U  D  D  U U U D U
|-0--x-0-x-x-2--x-2-x-x--2-2-x-x-|-0--0--0-0-0-0-0--0--0--0-0-0-0-0-|
|-2--x-2-x-x-2--x-2-x-x--2-2-x-x-|-0--0--0-0-0-0-0--0--0--0-0-0-0-0-|
|-1--x-1-x-x-2--x-2-x-x--2-2-x-x-|-1--1--1-1-1-1-1--1--1--1-1-1-1-1-|
|-2--x-2-x-x----x---x-x--2-2-x-x-|-0--0--0-0-0-0-0--0--0--0-0-0-0-0-|
|-0--x-0--------x---x-x------x-x-|-2--2--2-2-2-2-2--2--2--2-2-2-2-2-|
|--------------------------------|----------------------------------|
 TAKE THE THE   LOVE  YOU GAVE ME  AWAY!.......            WOULD YOU


    AM7        DM7

    #spoken on 1st time
    *spoken on 2nd time

    D  U D U D U  D U D U  D U D U
|-|-0--x-0-x-x-2--x-2-x-x--2-2-x-x-|-|
|*|-2--x-2-x-x-2--x-2-x-x--2-2-x-x-|*|
|-|-1--x-1-x-x-2--x-2-x-x--2-2-x-x-|-|
|-|-2--x-2-x-x----x---x-x------x-x-|-|
|*|-0--x-0--------x---x-x------x-x-|*|
|-|--------------------------------|-|
 #1.HURT THE   MAN  WHO LOVES YOU WOULD U
 *2.HURT THE   MAN  TODAY!...WOULD YOU

     AM7       F#m               E7

     D U D U D U D U  D U D U    D  D  U U U D U  D  D  U U U D U
|-|--0-x-0-x-x-2-x-x--2-2-x-x--|-0--0--0-0-0-0-0--0--0--0-0-0-0-0-|
|*|--2-x-2-x-x-2-x-x--2-2-x-x--|-0--0--0-0-0-0-0--0--0--0-0-0-0-0-|
|-|--1-x-1-x-x-2-x-x--2-2-x-x--|-1--1--1-1-1-1-1--1--1--1-1-1-1-1-|
|-|--2-x-2-x-x---x-x--2-2-x-x--|-0--0--0-0-0-0-0--0--0--0-0-0-0-0-|
|*|--0-x-0-------x-x------x-x--|-2--2--2-2-2-2-2--2--2--2-2-2-2-2-|
|-|----------------------------|----------------------------------|
   TAKE THE LOVE YOU GAVE ME  AWAY!...............OH WHAT I HAVE

 AM7 				 C#m7
[ Tab from: http://www.guitartabs.cc/tabs/k/kalapana/the_hurt_tab.html ]
  D  U D U  D  U D U  D U D U	 D  U D U  D  U D U  D U D U
|-0--0-x-x--0--0-x-x--0-0-x-x--|-4--4-x-x--4--4-x-x--4-4-x-x-|
|-2--2-x-x--2--2-x-x--2-2-x-x--|-5--5-x-x--5--5-x-x--5-5-x-x-|
|-1--1-x-x--1--1-x-x--1-1-x-x--|-4--4-x-x--4--4-x-x--4-4-x-x-|
|-2--2-x-x--2--2-x-x--2-2-x-x--|-7--7-x-x--7--7-x-x--7-7-x-x-|
|-0--0-x-x--0--0-x-x--0-0-x-x--|-4--4-x-x--4--4-x-x--4-4-x-x-|
|------------------------------|-----------------------------|
  DONE                           ALL THE TIME I GUESS IT WAS JUST

  F#7
  D  U D U  D  U D U  D U D U
|-5--5-x-x--5--5-x-x--5-5-x-x-|
|-7--7-x-x--7--7-x-x--7-7-x-x-|
|-6--6-x-x--6--6-x-x--6-6-x-x-|
|-7--7-x-x--7--7-x-x--7-7-x-x-|
|-5--5-x-x--5--5-x-x--5-5-x-x-|
|-----------------------------|
  FUN


  Bm7       E7                   AM7

  D  U D U  D  U D U  D U D U	 D  U D U  D  U D U  D U D U
|-2--2-x-x--0--0-x-x--0-0-x-x--|-0--0-x-x--0--0-x-x--0-0-x-x-|
|-3--3-x-x--0--0-x-x--0-0-x-x--|-2--2-x-x--2--2-x-x--2-2-x-x-|
|-2--2-x-x--1--1-x-x--1-1-x-x--|-1--1-x-x--1--1-x-x--1-1-x-x-|
|-4--4-x-x--0--0-x-x--0-0-x-x--|-2--2-x-x--2--2-x-x--2-2-x-x-|
|-2--2-x-x--2--2-x-x--2-2-x-x--|-0--0-x-x--0--0-x-x--0-0-x-x-|
|------------------------------|-----------------------------|
 I GAVE TO YOU THE SWEETEST THING I KNEW...................OOH


  F#7       A

  D  U D U  D  U D U  D U D U
|-2--2-x-x--5--5-x-x--5-5-x-x---|
|-2--2-x-x--5--5-x-x--5-5-x-x---|
|-2--2-x-x--6--6-x-x--6-6-x-x---|
|-2--2-x-x--7--7-x-x--7-7-x-x---|
|-4--4-x-x--7--7-x-x--7-7-x-x---|
|-2--2-x-x--5--5-x-x--5-5-x-x---|
  JUST     FOR YOU!........

  E7sus4 				     AM7        F#m

					     #spoken on 2nd time
					     *spoken on 3rd time
  D  D  U U U D  D U  D  D  U U U D  D U     D  U D U D U  D U D U  D U D U
|-7--7--7-7-7-7--7-7--7--7--7-7-7-7--7-7-|-|-0--x-0-x-x-2--x-2-x-x--2-2-x-x-|-|
|-5--5--5-5-5-5--5-5--5--5--5-5-5-5--5-5-|*|-2--x-2-x-x-2--x-2-x-x--2-2-x-x-|*|
|-7--7--7-7-7-7--7-7--7--7--7-7-7-7--7-7-|-|-1--x-1-x-x-2--x-2-x-x--2-2-x-x-|-|
|-7--7--7-7-7-7--7-7--7--7--7-7-7-7--7-7-|-|-2--x-2-x-x----x---x-x------x-x-|-|
|----------------------------------------|*|-0--x-0--------x---x-x------x-x-|*|
|----------------------------------------|-|--------------------------------|-|
                          WOULD.....YOU #1.HURT THE   MAN  WHO LOVES YOU WOULD U
                                        *2.HURT THE   MAN  TODAY!...WOULD YOU

  AM7        F#m                   E7

  D  U D U D U  D U D U  D U D U   D  D  U U U D U  D  D  U U U D U
|-0--x-0-x-x-2--x-2-x-x--2-2-x-x-|-0--0--0-0-0-0-0--0--0--0-0-0-0-0-|
|-2--x-2-x-x-2--x-2-x-x--2-2-x-x-|-0--0--0-0-0-0-0--0--0--0-0-0-0-0-|
|-1--x-1-x-x-2--x-2-x-x--2-2-x-x-|-1--1--1-1-1-1-1--1--1--1-1-1-1-1-|
|-2--x-2-x-x----x---x-x--2-2-x-x-|-0--0--0-0-0-0-0--0--0--0-0-0-0-0-|
|-0--x-0--------x---x-x------x-x-|-2--2--2-2-2-2-2--2--2--2-2-2-2-2-|
|--------------------------------|----------------------------------|
 TAKE THE THE   LOVE  YOU GAVE ME  AWAY!.......            WOULD YOU


    AM7        DM7

    #spoken on 1st time
    *spoken on 2nd time

    D  U D U D U  D U D U  D U D U
|-|-0--x-0-x-x-2--x-2-x-x--2-2-x-x-|-|
|*|-2--x-2-x-x-2--x-2-x-x--2-2-x-x-|*|
|-|-1--x-1-x-x-2--x-2-x-x--2-2-x-x-|-|
|-|-2--x-2-x-x----x---x-x------x-x-|-|
|*|-0--x-0--------x---x-x------x-x-|*|
|-|--------------------------------|-|
 #1.HURT THE   MAN  WHO LOVES YOU WOULD U
 *2.HURT THE   MAN  TODAY!...WOULD YOU               AM7       F#m

     D U D U D U D U  D U D U    D  D  U U U D U  D  D  U U U D U
|-|--0-x-0-x-x-2-x-x--2-2-x-x--|-0--0--0-0-0-0-0--0--0--0-0-0-0-0-|
|*|--2-x-2-x-x-2-x-x--2-2-x-x--|-0--0--0-0-0-0-0--0--0--0-0-0-0-0-|
|-|--1-x-1-x-x-2-x-x--2-2-x-x--|-1--1--1-1-1-1-1--1--1--1-1-1-1-1-|
|-|--2-x-2-x-x---x-x--2-2-x-x--|-0--0--0-0-0-0-0--0--0--0-0-0-0-0-|
|*|--0-x-0-------x-x------x-x--|-2--2--2-2-2-2-2--2--2--2-2-2-2-2-|
|-|----------------------------|----------------------------------|
    TAKE THE LOVE YOU GAVE ME  AWAY!.........................OH I

  F#m/D                           DM7

  D U D U D  U D U D U  D U D U   D U D U D  U D U D U  D U D U
|-5-5-5-5-5--x-5-x-5-x--5-5-5-5-|-5-5-5-5-5--x-5-x-5-x--5-5-5-5-|
|-7-7-7-7-7--x-7-x-7-x--7-7-7-7-|-6-6-6-6-6--x-6-x-6-x--6-6-6-6-|
|-6-6-6-6-6--x-6-x-6-x--6-6-6-6-|-5-5-5-5-5--x-5-x-5-x--5-5-5-5-|
|-7-7-7-7-7--x-7-x-7-x--7-7-7-7-|-7-7-7-7-7--x-7-x-7-x--7-7-7-7-|
|-5-5-5-5-5--x-5-x-5-x--5-5-5-5-|-5-5-5-5-5--x-5-x-5-x--5-5-5-5-|
|-------------------------------|-------------------------------|
  KNOW				  I'LL NEVER NEVER KNOW THE

 C#m7

 D U D U D  U D U D U  D U D U
|-4-4-4-4-4--x-4-x-4-x--4-4-4-4-|
|-5-5-5-5-5--x-5-x-5-x--5-5-5-5-|
|-4-4-4-4-4--x-4-x-4-x--4-4-4-4-|
|-6-6-6-6-6--x-6-x-6-x--6-6-6-6-|
|-4-4-4-4-4--x-4-x-4-x--4-4-4-4-|
|-------------------------------|
  TRUTH

  F#m				  Bm7

  D U D U D  U D U D U  D U D U   D U D U D  U D U D U  D U D U
|-2-2-2-2-2--x-2-x-2-x--2-2-2-2-|-2-2-2-2-2--x-2-x-2-x--2-2-2-2-|
|-2-2-2-2-2--x-2-x-2-x--2-2-2-2-|-3-3-3-3-3--x-3-x-3-x--3-3-3-3-|
|-2-2-2-2-2--x-2-x-2-x--2-2-2-2-|-2-2-2-2-2--x-2-x-2-x--2-2-2-2-|
|-2-2-2-2-2--x-2-x-2-x--2-2-2-2-|-4-4-4-4-4--x-4-x-4-x--4-4-4-4-|
|-4-4-4-4-4--x-4-x-4-x--4-4-4-4-|-2-2-2-2-2--x-2-x-2-x--2-2-2-2-|
|-2-2-2-2-2--x-2-x-2-x--2-2-2-2-|-------------------------------|
 OH I LOVE YOU GIRL FOR JUST      FUN                   I CAN'T


  C#m7

  D U D U D  U D U D U  D U D U
|-4-4-4-4-4--x-4-x-4-x--4-4-4-4-|
|-5-5-5-5-5--x-5-x-5-x--5-5-5-5-|
|-4-4-4-4-4--x-4-x-4-x--4-4-4-4-|
|-6-6-6-6-6--x-6-x-6-x--6-6-6-6-|
|-4-4-4-4-4--x-4-x-4-x--4-4-4-4-|
|-------------------------------|
  RUN                    OOH NO

  F#m/D				   E7sus4

  D U D U D  U D U D U  D U D U   D  D  U U D U  D U  D  D  U U D U  D U
|-5-5-5-5-5--x-5-x-5-x--5-5-5-5-|-7--7--7-7-7-7--7-7--7--7--7-7-7-7--7-7-|
|-7-7-7-7-7--x-7-x-7-x--7-7-7-7-|-5--5--5-5-5-5--5-5--5--5--5-5-5-5--5-5-|
|-6-6-6-6-6--x-6-x-6-x--6-6-6-6-|-7--7--7-7-7-7--7-7--7--7--7-7-7-7--7-7-|
|-7-7-7-7-7--x-7-x-7-x--7-7-7-7-|-7--7--7-7-7-7--7-7--7--7--7-7-7-7--7-7-|
|-5-5-5-5-5--x-5-x-5-x--5-5-5-5-|----------------------------------------|
|-------------------------------|----------------------------------------|
   NO!                   I CAN'T RUN!..                       WOULD YOU

  #spoken on 1st time
  *spoken on 2nd time

    AM7        DM7

    D  U D U D U  D U D U  D U D U
|-|-0--x-0-x-x-2--x-2-x-x--2-2-x-x-|-|
|*|-2--x-2-x-x-2--x-2-x-x--2-2-x-x-|*|
|-|-1--x-1-x-x-2--x-2-x-x--2-2-x-x-|-|
|-|-2--x-2-x-x----x---x-x------x-x-|-|
|*|-0--x-0--------x---x-x------x-x-|*|
|-|--------------------------------|-|
 #1.HURT THE   MAN  WHO LOVES YOU WOULD U
 *2.HURT THE   MAN  TODAY!...WOULD YOU

 AM7        F#m                   E7

  D  U D U D U  D U D U  D U D U   D  D  U U U D U  D  D  U U U D U
|-0--x-0-x-x-2--x-2-x-x--2-2-x-x-|-0--0--0-0-0-0-0--0--0--0-0-0-0-0-|
|-2--x-2-x-x-2--x-2-x-x--2-2-x-x-|-0--0--0-0-0-0-0--0--0--0-0-0-0-0-|
|-1--x-1-x-x-2--x-2-x-x--2-2-x-x-|-1--1--1-1-1-1-1--1--1--1-1-1-1-1-|
|-2--x-2-x-x----x---x-x--2-2-x-x-|-0--0--0-0-0-0-0--0--0--0-0-0-0-0-|
|-0--x-0--------x---x-x------x-x-|-2--2--2-2-2-2-2--2--2--2-2-2-2-2-|
|--------------------------------|----------------------------------|
 TAKE THE THE   LOVE  YOU GAVE ME  AWAY!.......            WOULD YOU

  #spoken on 1st time
  *spoken on 2nd time

    AM7        DM7
    D  U D U D U  D U D U  D U D U
|-|-0--x-0-x-x-2--x-2-x-x--2-2-x-x-|-|
|*|-2--x-2-x-x-2--x-2-x-x--2-2-x-x-|*|
|-|-1--x-1-x-x-2--x-2-x-x--2-2-x-x-|-|
|-|-2--x-2-x-x----x---x-x------x-x-|-|
|*|-0--x-0--------x---x-x------x-x-|*|
|-|--------------------------------|-|
 #1.HURT THE   MAN  WHO LOVES YOU WOULD U
 *2.HURT THE   MAN  TODAY!...WOULD YOU


   AM7       F#m               E7
					    #spoken on 2nd time
					    *spoken on 3rd time
   D U D U D U D U  D U D U     D  D  U U U D U  D  D  U U U D U  3x
|--0-x-0-x-x-2-x-x--2-2-x-x--|-|0--0--0-0-0-0-0--0--0--0-0-0-0-0-|-|
|--2-x-2-x-x-2-x-x--2-2-x-x--|*|0--0--0-0-0-0-0--0--0--0-0-0-0-0-|*|
|--1-x-1-x-x-2-x-x--2-2-x-x--|-|1--1--1-1-1-1-1--1--1--1-1-1-1-1-|-|
|--2-x-2-x-x---x-x--2-2-x-x--|-|0--0--0-0-0-0-0--0--0--0-0-0-0-0-|-|
|--0-x-0-------x-x------x-x--|*|2--2--2-2-2-2-2--2--2--2-2-2-2-2-|*|
|----------------------------|-|---------------------------------|-|
  TAKE THE LOVE YOU GAVE ME  AWAY!.............................
            		    #2. HURT THE MAN WHO LOVES U
		                (take the love u gave me)
			    *3. HURT THE MAN WHO LOVES U
			        (take the love u gave me!)

|-|-0--x-0-x-x-2--x-2--x-x--2-2-x-x-|-|
|*|-2--x-2-x-x-2--x-2--x-x--2-2-x-x-|*|
|-|-1--x-1-x-x-2--x-2--x-x--2-2-x-x-|-|
|-|-2--x-2-x-x----x----x-x------x-x-|-|
|*|-0--x-0--------x----x-x------x-x-|*|
|-|---------------------------------|-|
    HURT!      HURT!
Comments