Kaiser Chiefs - Saturday Night Chords & Tabs

 

Saturday Night Chords & Tabs

Kaiser Chiefs Chords & Tabs

Version: 2 Type: Tab 0 ratings
1 star 2 stars 3 stars 4 stars 5 stars
comments

Saturday Night Tab

Kaiser Chiefs - Saturday Night
tabbed by LuckyJim (barbarico@gmail.com)


Intro
-----

E [---------------------------]
B [---------------------------]
G [---------------------------]
D [---------------------------]
A [---------------------------]
E [-h3p0---h3p0---h3p0---h3p0-]


Verse
-----

E [--------------------]
B [--------------------]
G [-12-12-12-9---9-9-9-]
D [-12-12-12-9---9-9-9-]
A [-10-10-10-7---7-7-7-]
E [--------------------]


middle riff...

E [------------------------------------------------------------------]
B [------------------------------------------------------------------]
G [----------------------------7--7----------------------------------]
D [-7-7-7-7-7-7-7-7-7-7-7-7-7--7--7--7-7-7-7-7-7-7-7-7-7-7-7-7-7-7-7-]
A [-7-7-7-7-7-7-7-7-7-7-7-7-7--5--5--7-7-7-7-7-7-7-7-7-7-7-7-7-7-7-7-]
E [-5-5-5-5-5-5-5-5-5-5-5-5-5--------5-5-5-5-5-5-5-5-5-5-5-5-5-5-5-5-]


Chorus
------

E [------------------------------------------------------------------]
B [------------------------------------------------------------------]
G [----------------------------7--7----------------------------------]
D [-7-7-7-7-7-7-7-7-7-7-7-7-7--7--7--7-7-7-7-7-7-7-7-7-7-7-7-7-7-7-7-]
A [-7-7-7-7-7-7-7-7-7-7-7-7-7--5--5--7-7-7-7-7-7-7-7-7-7-7-7-7-7-7-7-]
E [-5-5-5-5-5-5-5-5-5-5-5-5-5--------5-5-5-5-5-5-5-5-5-5-5-5-5-5-5-5-]

E [----------------------------------------------------------------------]
B [----------------------------------------------------------------------]
G [-4-4-4-5-5-5-5-5-5-5-5-5-5-5-5--4--4--5-5-5-5-5-5-5-5-5-5-5-5-5-5-5-5-]
D [-4-4-4-5-5-5-5-5-5-5-5-5-5-5-5--4--4--5-5-5-5-5-5-5-5-5-5-5-5-5-5-5-5-]
A [-2-2-2-3-3-3-3-3-3-3-3-3-3-3-3--2--2--3-3-3-3-3-3-3-3-3-3-3-3-3-3-3-3-]
E [----------------------------------------------------------------------]
[ Tab from: http://www.guitartabs.cc/tabs/k/kaiser_chiefs/saturday_night_tab_ver_2.html ]
E [----------------------------------------------------------------------]
B [----------------------------------------------------------------------]
G [-6-6-6-7-7-7-7-7-7-7-7-7-7-7-7--6--6--7-7-7-7-7-7-7-7-7-7-7-7-7-7-7-7-]
D [-6-6-6-7-7-7-7-7-7-7-7-7-7-7-7--6--6--7-7-7-7-7-7-7-7-7-7-7-7-7-7-7-7-]
A [-4-4-4-5-5-5-5-5-5-5-5-5-5-5-5--4--4--5-5-5-5-5-5-5-5-5-5-5-5-5-5-5-5-]
E [----------------------------------------------------------------------]


after 2nd chorus play:

E [--------------------------------------------]
B [--------------------------------------------]
G [-4---4---4-4-4-4-4-4-4-4---2-4-4---4-4-4----]
D [-4---4---4-4-4-4-4-4-4-4---2-4-4---4-4-4----]
A [-2---2---2-2-2-2-2-2-2-2---0/2-2---2-2-2etc-]
E [--------------------------------------------]

E [---------------------------------------------------------------]
B [---------------------------------------------------------------]
G [-4---4---4-4-4-4---4-4-4-7---6---2---2---2-2-2-2---2-2-2-7---6-]
D [-4---4---4-4-4-4---4-4-4-7---6---2---2---2-2-2-2---2-2-2-7---6-]
A [-2---2---2-2-2-2---2-2-2-5---4---0---0---0-0-0-0---0-0-0-5---4-] x2
E [---------------------------------------------------------------]

E [----------------------------------------------------------------------]
B [----------------------------------------------------------------------]
G [-4-4-4-5-5-5-5-5-5-5-5-5-5-5-5--4--4--5-5-5-5-5-5-5-5-5-5-5-5-5-5-5-5-]
D [-4-4-4-5-5-5-5-5-5-5-5-5-5-5-5--4--4--5-5-5-5-5-5-5-5-5-5-5-5-5-5-5-5-]
A [-2-2-2-3-3-3-3-3-3-3-3-3-3-3-3--2--2--3-3-3-3-3-3-3-3-3-3-3-3-3-3-3-3-]
E [----------------------------------------------------------------------]

E [----------------------------------------------------------------------]
B [----------------------------------------------------------------------]
G [-6-6-6-7-7-7-7-7-7-7-7-7-7-7-7--6--6--7-7-7-7-7-7-7-7-7-7-7-7-7-7-7-7-]
D [-6-6-6-7-7-7-7-7-7-7-7-7-7-7-7--6--6--7-7-7-7-7-7-7-7-7-7-7-7-7-7-7-7-]
A [-4-4-4-5-5-5-5-5-5-5-5-5-5-5-5--4--4--5-5-5-5-5-5-5-5-5-5-5-5-5-5-5-5-]
E [----------------------------------------------------------------------]
Comments