Kaiser Chiefs - Na Na Na Na Na Chords & Tabs

 

Na Na Na Na Na Chords & Tabs

Kaiser Chiefs Chords & Tabs

Version: 1 Type: Bass Tab 0 ratings
1 star 2 stars 3 stars 4 stars 5 stars
comments

Na Na Na Na Na Bass Tab

KAISER CHIEFS - NA NA NA NA NAA - EMPLOYMENT

----------------------------------------------------------------|
----------------------------------------------------------------|
7-7-7-7-7-7-7-7-7-7-7-7-7-7-7-7-7-7-7-7-7-7-7-7-7-7-7-7-7-7-7-7-|
----------------------------------------------------------------|

nananananaa...			nananananaa...


----------------------------------------------------------------|
----------------------------------------------------------------|
7-7-7-7-7-7-7-7-7-7-7-7-7-7-7-7-7-7-7-7-7-7-7-7-7-7-7-7-7-7-7-7-|
----------------------------------------------------------------|

nananananaa...			nananananaa... ohhhhhhhhhhhhhhh!


----------------------------------------------------------------|
----------------------------------------------------------------|
----------------------------------------------------------------|
5---------------------------------------------------------------|

it does not move me, it does not get me going at all!


----------------------------------------------------------------|
----------------------------------------------------------------|
7-7-7-7-7-7-7-7-7-7-7-7-7-7-7-7-7-7-7-7-7-7-7-7-7-7-7-7-7-7-7-7-|
----------------------------------------------------------------|

nananananaa...			nananananaa...


----------------------------------------------------------------|
----------------------------------------------------------------|
----------------------------------------------------------------|
5---------------------------------------------------------------|

it does not shift me, its not the kind of thing that i like!


----------------------------------------------------------------|
----------------------------------------------------------------|
7-7-7-7-7-7-7-7-7-7-7-7-7-7-7-7-7-7-7-7-7-7-7-7-7-7-7-7-7-7-7-7-|
----------------------------------------------------------------|
nananananaa...			nananananaa...


----------------------------------------------------------------|
----------------------------------------------------------------|
----------------------------------------------------------------|
7-7-7-7-7-7-7-7-7-7-7-7-7-7-7-7-5-5-5-5-5-5-5-5-5-5-5-5-5-5-5-5-|

it does not move me, its not the kind of thing that i like!


----------------------------------------------------------------|
----------------------------------------------------------------|
7-7-7-7-7-7-7-7-7-7-7-7-7-7-7-7-7-7-7-7-7-7-7-7-7-7-7-7-7-7-7-7-|
----------------------------------------------------------------|
nananananaa...			nananananaa...


----------------------------------------------------------------|
----------------------------------------------------------------|
----------------------------------------------------------------|
5---------------------------------------------------------------|

she does not listen, she's too wrapped up in all of her things


----------------------------------------------------------------|
----------------------------------------------------------------|
7-7-7-7-7-7-7-7-7-7-7-7-7-7-7-7-7-7-7-7-7-7-7-7-7-7-7-7-7-7-7-7-|
----------------------------------------------------------------|
nananananaa...			nananananaa...


----------------------------------------------------------------|
----------------------------------------------------------------|
----------------------------------------------------------------|
5---------------------------------------------------------------|

but this does not get to me, cos she's not the kind of girl that i like!


----------------------------------------------------------------|
----------------------------------------------------------------|
7-7-7-7-7-7-7-7-7-7-7-7-7-7-7-7-7-7-7-7-7-7-7-7-7-7-7-7-7-7-7-7-|
----------------------------------------------------------------|
nananananaa...			nananananaa... ohhhhhhhhhhhhhhh!


----------------------------------------------------------------|
----------------------------------------------------------------|
----------------------------------------------------------------|
7-7-7-7-7-7-7-7-7-7-7-7-7-7-7-7-5-5-5-5-5-5-5-5-5-5-5-5-5-5-5-5-|

she does not move me, she's not the kind of girl that i like!

[ Tab from: http://www.guitartabs.cc/tabs/k/kaiser_chiefs/na_na_na_na_na_btab.html ]
----------------------------------------------------------------|
----------------------------------------------------------------|
7-7-7-7-7-7-7-7-7-7-7-7-7-7-7-7-7-7-7-7-7-7-7-7-7-7-7-7-7-7-7-7-|
----------------------------------------------------------------|
nananananaa...			nananananaa... ohhhhhhhhhhhhhhh!


guitar solo:
----------------------------------------------------------------|
----------------------------------------------------------------|
7-7-7-7-7-7-7-7-7-7-7-7-7-7-7-7-7-7-7-7-7-7-7-7-7-7-7-7-7-7-7-7-|
----------------------------------------------------------------|

----------------------------------------------------------------|
----------------------------------------------------------------|
7-7-7-7-7-7-7-7-7-7-7-7-7-7-7-7-7-7-7-7-7-7-7-7-7-7-7-7-7-7-7-7-|
----------------------------------------------------------------|

----------------------------------------------------------------|
----------------------------------------------------------------|
----------------------------------------------------------------|
5-5-5-5-5-5-5-5-5-5-5-5-5-5-5-5-5-5-5-5-5-5-5-5-5-5-5-5-5-5-5-5-|

----------------------------------------------------------------|
----------------------------------------------------------------|
7-7-7-7-7-7-7-7-7-7-7-7-7-7-7-7-7-7-7-7-7-7-7-7-7-7-7-7-7-7-7-7-|
----------------------------------------------------------------|
						ohhhhhhhhhhhhhh!

----------------------------------------------------------------|
----------------------------------------------------------------|
----------------------------------------------------------------|
7-7-7-7-7-7-7-7-7-7-7-7-7-7-7-7-5-5-5-5-5-5-5-5-5-5-5-5-5-5-5-5-|

it does not move me, its not the kind of thing that i like!


----------------------------------------------------------------|
----------------------------------------------------------------|
7-7-7-7-7-7-7-7-7-7-7-7-7-7-7-7-7-7-7-7-7-7-7-7-7-7-7-7-7-7-7-7-|
----------------------------------------------------------------|
nananananaa...			nananananaa...


----------------------------------------------------------------|
----------------------------------------------------------------|
7-7-7-7-7-7-7-7-7-7-7-7-7-7-7-7-7-7-7-7-7-7-7-7-7-7-7-7-7-7-7-7-|
----------------------------------------------------------------|
nananananaa...			nananananaa... ohhhhhhhhhhhhhhh!


----------------------------------------------------------------|
----------------------------------------------------------------|
----------------------------------------------------------------|
5---------------------------------------------------------------|

it does not move me... it does not get me going at all!

----------------------------------------------------------------|
----------------------------------------------------------------|
7-7-7-7-7-7-7-7-7-7-7-7-7-7-7-7-7-7-7-7-7-7-7-7-7-7-7-7-7-7-7-7-|
----------------------------------------------------------------|

----------------------------------------------------------------|
----------------------------------------------------------------|
----------------------------------------------------------------|
5---------------------------------------------------------------|

it does not shift me... its not the kind of thing that i like!


----------------------------------------------------------------|
----------------------------------------------------------------|
7-7-7-7-7-7-7-7-7-7-7-7-7-7-7-7-7-7-7-7-7-7-7-7-7-7-7-7-7-7-7-7-|
----------------------------------------------------------------|
						ohhhhhhhhhhhhhh!


----------------------------------------------------------------|
----------------------------------------------------------------|
----------------------------------------------------------------|
7-7-7-7-7-7-7-7-7-7-7-7-7-7-7-7-5-5-5-5-5-5-5-5-5-5-5-5-5-5-5-5-|

it does not move me, its not the kind of thing that i like!


----------------------------------------------------------------|
----------------------------------------------------------------|
7-7-7-7-7-7-7-7-7-7-7-7-7-7-7-7-7-7-7-7-7-7-7-7-7-7-7-7-7-7-7-7-|
----------------------------------------------------------------|
nananananaa...			nananananaa...


----------------------------------------------------------------|
----------------------------------------------------------------|
7-7-7-7-7-7-7-7-7-7-7-7-7-7-7-7-7-7-7-7-7-7-7-7-7-7-7-7-7-7-7-7-|
----------------------------------------------------------------|
nananananaa...			nananananaa... ohhhhhhhhhhhhhhh!

----------------------------------------------------------------|
----------------------------------------------------------------|
----------------------------------------------------------------|
7---------------------------------------------------------------|
Comments