Kaiser Chiefs - I Predict A Riot Chords & Tabs

 

I Predict A Riot Chords & Tabs

Kaiser Chiefs Chords & Tabs

Version: 5 Type: Tab

I Predict A Riot Tab

   
This is currently one of my favourite songs and it has taken me a long time
to try and figure this out.  I hope you enjoy it.
****************************************************************************

[ Tab from: http://www.guitartabs.cc/tabs/k/kaiser_chiefs/i_predict_a_riot_tab_ver_5.html ]
E|-------------------------------------------------------------------|
B|-------------------------------------------------------------------|
G|-------------------------------------------------------------------|
D|------------------------------13--13--12--12--10--10---------------|
A|--10-10-13--12--10-10-13--12--11--11--10--10---8---8--13--12--(10)-|
E|---8--8-11--10---8--8-11--10--------------------------11--10--(8)--|

E|--------------|
B|--------------|
G|--------------|
D|--------------|
A|--------8-----|
E|--8--6--------|

E|-----------------|
B|-----------------|
G|-----------------|
D|-----------------|
A|-----------8-----|
E|--8--7--6--------|

Chorus:

    G#   C#   G#   C#
E|--444--666--444--666-|
B|--444--888--444--888-|
G|--555--888--555--888-|  Repeat until end of chorus
D|--666--888--666--888-|
A|--666--666--666--666-|
E|--444--666--444--444-|

****************************************************************************
Stevie M