Kaiser Chiefs - I Predict A Riot Chords & Tabs

 

I Predict A Riot Chords & Tabs

Kaiser Chiefs Chords & Tabs

Version: 2 Type: Tab 0 ratings
1 star 2 stars 3 stars 4 stars 5 stars
comments

I Predict A Riot Tab

   
-------------------------------------------------------------------------------
			     I Predict A Riot - Kaiser Chiefs
-------------------------------------------------------------------------------
Tabbed by:jake carter


Tuning:eadgbe 

Intro

e|---------------------------------------------------------------------------|
B|---------------------------------------------------------------------------|
G|---------------------------------------------------------------------------|
D|---------------------------------------------------------------------------|
A|-3-6-5--3-6-5--10--8--6--5-3-repeat----------------------------------------|
E|---------------------------------------------------------------------------|

verse

e|---------------------------------------------------------------------------|
B|---------------------------------------------------------------------------|
G|-5---------8---------10----------------------------------------------------|
D|-5---------8---------10---let all chords ring------------------------------|
A|-3---------6---------8-----------------------------------------------------|
E|---------------------------------------------------------------------------|

bridge
[ Tab from: http://www.guitartabs.cc/tabs/k/kaiser_chiefs/i_predict_a_riot_tab_ver_2.html ]
e|---------------------------------------------------------------------------|
B|---------------------------------------------------------------------------|
G|-5-5-5-5-5-5-5-5-----------------8-8-8-8-8-8-8-8-10-10-10-10-10-10-10-10---|
D|-5-5-5-5-5-5-5-5-5-5-5-5-5-5-5-5-8-8-8-8-8-8-8-8-10-10-10-10-10-10-10-10---|
A|-3-3-3-3-3-3-3-3-5-5-5-5-5-5-5-5-6-6-6-6-6-6-6-6-8--8--8--8--8--8--8--8----|
E|-----------------3-3-3-3-3-3-3-3-------------------------------------------|

chorus

e|---------------------------------------------------------------------------|
B|---------------------------------------------------------------------------|
G|------------------6-6-6-6--------------------------------------------------|
D|-6-6-6-6-6-6--6-6-6-6-6-6-6-6-6-6-6-6--6-6-6/10-10-10----------------------|
A|-6-6-6-6-6-6--6-6-4-4-4-4-6-6-6-6-6-6--6-6-6/10-10-10----------------------|
E|-4-4-4-4-4-4--4-4---------4-4-4-4-4-4--4-4-4/9--9--9-----------------------|

really fast bit

e|-----------------------------------------------------------------------------|
B|-----------------------------------------------------------------------------|
G|-5-5-5-5-5-5-5-5-8-8-8-8-7-7-7-7-5-5-5-5-5-5-5-5-8-8-8-8-7-7-7-7-12-12-12-12-|
D|-5-5-5-5-5-5-5-5-8-8-8-8-7-7-7-7-5-5-5-5-5-5-5-5-8-8-8-8-7-7-7-7-12-12-12-12-|
A|-3-3-3-3-3-3-3-3-6-6-6-6-5-5-5-5-3-3-3-3-3-3-3-3-6-6-6-6-5-5-5-5-10-10-10-10-|
E|-----------------------------------------------------------------------------|

e|---------------------------------------------------------------------------|
B|---------------------------------------------------------------------------|
G|-12-12-12-12-10-10-10-10-10-10-10-10-8-8-8-8-8-8-8-8-7-7-7-7-5-5-5-5-------|
D|-12-12-12-12-10-10-10-10-10-10-10-10-8-8-8-8-8-8-8-8-7-7-7-7-5-5-5-5-------|
A|-10-10-10-10-8--8--8--8--8--8--8--8--6-6-6-6-6-6-6-6-5-5-5-5-3-3-3-3-------|
E|---------------------------------------------------------------------------|




| /  slide up
| \  slide down
| h  hammer-on
| p  pull-off
| ~  vibrato
| +  harmonic
| x  Mute note
===============================================================================
Comments