Kaiser Chiefs - I Predict A Riot Chords & Tabs

 

I Predict A Riot Chords & Tabs

Kaiser Chiefs Chords & Tabs

Version: 1 Type: Tab 0 ratings
1 star 2 stars 3 stars 4 stars 5 stars
comments

I Predict A Riot Tab

   
I PREDICT A RIOT
The Kaiser Chiefs


INTRO
E -------------------------------------------------------|
B -------------------------------------------------------|
G -------------------------------------------------------|
D ----------------6--65--53--3---------------------------|
A 3---6-5-3---6-5-------------6-5-3  leads on to verse 1-|
E -------------------------------------------------------|

VERSE
E ----------------|
B ----------------|
G ----------------|
D ----------------|   x4 I think
A 3-------1-------|
E ------------1---|
[ Tab from: http://www.guitartabs.cc/tabs/k/kaiser_chiefs/i_predict_a_riot_tab.html ]
BRIDGE
A 3---2---1-------                   A 3333333333333333-|
E ------------1---   x2, second time E 1111111111111111-|
                                 ends
Then Chorus

G#5               C#5         G#5       C#5
I Predict a Riot, I Predict A Riot

Repeat as many times as seems fit.

THEN SECOND TIME ROUND

C#5           D               C
And If Theres Anybody Left In Here
     Bb                     G#
That doesn't want to be out theeeeeeeeeeeeeeere

BREAK is like INTRO x4

INTRO
VERSE 1
BRIDGE
CHORUS
VERSE 2
BRIDGE
CHORUS
FUNNY BIT
BREAK
VERSE 3 but with no guitar
BRIDGE with long lalala F5 bit
CHORUS
FUNNY BIT

Comments