Kaiser Chiefs - Born To Be A Dancer Chords & Tabs

 

Born To Be A Dancer Chords & Tabs

Kaiser Chiefs Chords & Tabs

Version: 2 Type: Bass Tab

Born To Be A Dancer Bass Tab

   
Tabbed By : rich glover
e-mail: richiegluv01@Hotmail.com

Tuning: E A D G
intro
[ Tab from: http://www.guitartabs.cc/tabs/k/kaiser_chiefs/born_to_be_a_dancer_btab_ver_2.html ]
G|-----------------------------------------------------------------------------|
D|-----------------------------------------------------------------------------|
A|-3-1-1--3-5-5--3-1-1---1-1-1-1 3-3-3-----------------------------------------|
E|-----------------------------------------------------------------------------|
chorus (play 4 times)
G|-----------------------------------|
D|-----------------------------------|
A|-5-5---5-5 7-8-7-5-3-1-1---1-1-----|
E|----5-5-----------------1-1---5-5--|
chorus
G|----------------------------------------------------------------|
D|----------------------------------------------------------------|
A|--------------------------------1-1-1-1-1-1-1-1-----------------|
E|-3-3-3-3-3-3-3-3-1-1-1-1-1-1-1-1---------------4-4-4-4-4-4-4-4--|
(oh oh oh)
G|-------------------------------------------------------------------------------------|
D|-------------------------------------------------------------------------------------|
A|-------------------------------------------------------------------------------------|
E|-3-3-3-3-3-3-2-4---------------------------------------------------------------------|

thats all iv got 4 yas 4 now, ill try n figure out da rest, let me no plz if t helps you


| /  slide up
| \  slide down
| h  hammer-on
| p  pull-off
| ~  vibrato
| +  harmonic
| x  Mute note
===============================================================================