Kaante - Rama Re Chords & Tabs

 

Rama Re Chords & Tabs

Kaante Chords & Tabs

Version: 1 Type: Tab 0 ratings
1 star 2 stars 3 stars 4 stars 5 stars
comments

Rama Re Tab

   
Song - jane ka hoga rama re
Film - kaante

Tabbed by A@ron


First solo(starts with 'g' string & ends on e)

s=slide

e|---2--3-------------------------------------|
b|------5---7--875----------------------------|
g|-2s--4--------------------------------------|
d|--------------------------------------------|
a|--------------------------------------------|
E|--------------------------------------------|


Pluckin part

e|--------------------------------------------|
b|-1s-----51---7--5s-8------------------------|
g|--------------------------------------------|
d|--------------------------------------------|
a|--------------------------------------------|
E|--------------------------------------------|


Pluckin part II
                 Pluck in Chord Em
e|--------------------------------------------|
b|------3-------------------------------------|
g|--------------------------------------------|
d|---2----------------------------------------|
a|---2----------------------------------------|
E|--------------------------------------------|
[ Tab from: http://www.guitartabs.cc/tabs/k/kaante/rama_re_tab.html ]
                Pluck in Chord D
e|---0----------------------------------------|
b|-----3--------------------------------------|
g|---2----------------------------------------|
d|--------------------------------------------|
a|--------------------------------------------|
E|--------------------------------------------|

              Pluck in Chord G
e|------3-------------------------------------|
b|------3-------------------------------------|
g|--------------------------------------------|
d|--------------------------------------------|
a|---2----------------------------------------|
E|------3-------------------------------------|

             Pluck in Chord F
e|-1------------------------------------------|
b|-1------------------------------------------|
g|---2----------------------------------------|
d|------3-------------------------------------|
a|------3-------------------------------------|
E|--------------------------------------------|



Song Chords

Socha nahin tha-Em,Am,D
jane ka hoga rame re-Em,D

Any Suggestions mail me
panasonicaaron@rediffmail.com
Comments