K-os - Eiche Ist Cool Fichte Ist Schwul Chords & Tabs

 

Eiche Ist Cool Fichte Ist Schwul Chords & Tabs

K-os Chords & Tabs

Version: 1 Type: Tab 0 ratings
1 star 2 stars 3 stars 4 stars 5 stars
comments

Eiche Ist Cool Fichte Ist Schwul Tab

Band: K.O.S. (the Best german Punkband ever)
Song: Eiche ist coll, Fichte ist schwul
Tabbed by: Masterreen98@aol.com

The song is just one riff, which is played over and over
The first two times Palm muted, the rest heavy distorted.


D---7----7--------5----5---------------------2---2---2---2
A---7----7--------5----5-------2---2--------2---2---2---2
E---5----5---0---3----3---0---3---3---0---0---0---0---0

Eiche     ist   cool    und Fichte ist   schwul, ... (everybody knows the 
rest)


Solo:  Iīm very sure abot that
e|-----------------------|6--6--6--6--6--6--6--6--|6--------------------------

| 
b|----------------6--8--|6--6--6--6--6--6--6--6--|6--9--8--6--------------|
g|----------6--7---------|-----------------------------|--------------6--7----

----|
d|------------------------|------------------------------|--------------------

8--8--| 
a|------------------------|------------------------------|--------------------

------| 
e|------------------------|------------------------------|--------------------

------|


e|------------------------------|-----------------------------|---------------

-------------------| 
b|------------------------------|---6--8--6-----------------|-----6-------6---

---------------|
g|7--7--7--7--7--7--7--7--|7---7--7--7--7--5--3----|8-b10---8-b10---8-b10---|
d|8--8--8--8--8--8--8--8--|8------------------------5--|----------------------

-----------| 
a|------------------------------|-----------------------------|---------------

-------------------| 
e|------------------------------|-----------------------------|---------------

-------------------|


e|6----------------------------|---------------------------------|6-----------

-----------------| 
b|6-------6-------6-----------|-----6-------6-----------------|6----------6---
[ Tab from: http://www.guitartabs.cc/tabs/k/k_os/eiche_ist_cool_fichte_ist_schwul_tab.html ]
--------6----|
g|---8-b10---8-b10--------|8-b10---8-b10---8-b10---|---8-b10----8-b10-------|
d|------------------------------|---------------------------------|-----------

-------------------| 
a|------------------------------|---------------------------------|-----------

-------------------| 
e|------------------------------|---------------------------------|-----------

-------------------|


e|---------6-----------8--6--|------------------6--------|---------6-----6----

--------| 
b|------------9--8--6--------|9--8--6-----------6--9--|8--6-----6-----6--8--6-

--|
g|8--b10--------------------|---------8--6-h7---7----|------b8----b8----8-6h7-
|
d|-----------------------------|----------------------------|-----------------

-------------| 
a|-----------------------------|----------------------------|-----------------

-------------| 
e|-----------------------------|----------------------------|-----------------

-------------|
                                                     *  b8 means 8 b up to 10

e|------------------------||
b|------------------------||
g|------------------------||
d|8-----------------------||
a|------------------------||
e|------------------------||

I know iīts very hard to play (Itīs soundīs like a Chuck Berry Part), but you 
will make it.

After the solo you play the 
Riff 2X

Song structure: Play the riff 4x Palm muted
                       Now Matthias starts to sing it you play this 6X heavy 
distorted
                       Then Gtr1. plays the solo, Gtr.2 plays some trash i 
canīt figure,                                                                 
                                                                              
                                                         
                        but this part doesnīt matter.
                        now you play the riff 2X palm muted

                       And now smash your equipment, or make a sound like 
this  
                                       


Comments