K Ci And Jojo - All My Life Chords & Tabs

 

All My Life Chords & Tabs

K Ci And Jojo Chords & Tabs

Version: 2 Type: Tab 0 ratings
1 star 2 stars 3 stars 4 stars 5 stars
comments

All My Life Tab

          Author/Artist: K Ci & JoJo 
          Title: All My Life 
          Transcribed by: Nathan & Stan 
          Email: flames4life@hotmail.com  
          
          Really nice song....this is only the intro and the chorus !! 
          
          CAPO 1st fret 
          
          -1-----1--0-----0------3-------0-----0-----------------0---------------------- 
          -----3--------1----3------1-3------1---3-----3-1---1-3------------------------ 
          ---2--------0--------0-----------0---------0---------------------------------- 
          -0---------------------------------------0------------------------------------ 
          ----------3--------2-----------3-------2-------0------------------------------ 
          ------------------------------------------------------------------------------ 
            Intro starts at 0:40                                                         
          
          -1-----1--0-----0----3------0-----0------------------0------------------------ 
          -----3--------1----3---3--------1----3-----3-1--*1-3-------------------------- 
          ---2--------0------------0----0----------0------------------------------------ 
          -0-------------------------------------0-------------------------------------- 
          ----------3--------2--------3--------2-------0-------------------------------- 
          ------------------------------------------------------------------------------ 
             Play these lines twice but only play * once after first time.               
          
          ----------1----0-----3-----3----3------0-----------0-----------0-------------- 
          ----------3----1-----3-----3----3------1-----------3-----------1-------------- 
          ----------2----0-----0-----0----0------0-----------0-----------2-------------- 
          ----------0----2-----0-----0----0------2-----------0-----------2-------------- 
          ---------------3-----2-----2----2------3-----------2-----------0-------------- 
          ---------------------3-----3----3--------------------------------------------- 
           Chorus  All   my   life               I pray for someone like you.....
[ Tab from: http://www.guitartabs.cc/tabs/k/k_ci_and_jojo/all_my_life_tab_ver_2.html ]
Comments