Juvenile - Slow Motion Chords & Tabs

 

Slow Motion Chords & Tabs

Juvenile Chords & Tabs

Version: 3 Type: Tab 0 ratings
1 star 2 stars 3 stars 4 stars 5 stars
comments

Slow Motion Tab

e--------------------------------|
b------5---8---------------------|
g--4-----------8-----7-----------|
d--------------------------------|
a--------------------------------|
e--------------------------------|
[ Tab from: http://www.guitartabs.cc/tabs/j/juvenile/slow_motion_tab_ver_3.html ]
e--------------------------------|
b------5---8---------------------|
g--4-----------8-----7-----------|
d--------------------------------|
a--------------------------------|
e--------------------------------|
[ Tab from: http://www.guitartabs.cc/tabs/j/juvenile/slow_motion_tab_ver_3.html ]
e--------------------------------|
b------5---8---------------------|
g--4-----------8-----7-----------|
d--------------------------------|
a--------------------------------|
e--------------------------------|
Comments