Juvenile - Slow Motion Chords & Tabs

 

Slow Motion Chords & Tabs

Juvenile Chords & Tabs

Version: 2 Type: Tab 0 ratings
1 star 2 stars 3 stars 4 stars 5 stars
comments

Slow Motion Tab

Into/verse/hook
e|---------------------------------------------------------------------------|
B|-4--6--8-------------------------------------------------------------------|
G|---------8--7--------------------------------------------------------------|
D|---------------------------------------------------------------------------|
A|---------------------------------------------------------------------------|
E|---------------------------------------------------------------------------|

end of hook
e|---------------------------------------------------------------------------|
B|-5--4--3-------------------------------------------------------------------|
G|---------3-----------------------------------------------------------------|
D|---------------------------------------------------------------------------|
A|---------------------------------------------------------------------------|
E|---------------------------------------------------------------------------|
[ Tab from: http://www.guitartabs.cc/tabs/j/juvenile/slow_motion_tab_ver_2.html ]
Comments