Justincase - When My Heart Falls Down Chords & Tabs

 

When My Heart Falls Down Chords & Tabs

Justincase Chords & Tabs

Version: 1 Type: Tab 0 ratings
1 star 2 stars 3 stars 4 stars 5 stars
comments

When My Heart Falls Down Tab

   
song: when my heart falls down 
band: justincase
cd: upstart

tunning: standard

chords used:
G     - 320033
A7sus - x02033
Dsus4 - xx0233
D     - xx0232
C     - x32010

---

(intro & verse) (repeat 6 times)

E/-------------------------------------
B/--------3-----3----------3-----3-----
G/------0---0----0-------0---0-----0---
D/----2-------2--------0-------0-------
A/--3----------------2-----------------
E/-------------------------------------

E/-------------------------------------
B/--------3-----3----------3-----3-----
G/------2---2-----2------0---0-----0---
D/----0-------0--------0-------0-------
A/--0----------------------------------
E/-------------------3-----------------

the 6th time the last section is different.  instead of:
E/--------------------
B/--------3-----3-----
G/------0---0-----0---
D/----0-------0-------
A/--------------------
E/--3-----------------

it's:

E/---------3---
B/-------------
G/------0------
D/----0--------
A/-------------
E/--3----------

(intro: play x1)

(3rd time)
I believed in no one
Till I found you

(4th time)
I could see no one
Till I found you

(5th time)
I never knew my heart could break 
In such a way

(6th time)
That the best I get is in my dreams
But I'm not betrayed 



(chorus)

      G       G      A7sus    Dsus4
E/----3-------3-------3-------3---
B/----3-------3-------3-------3---
G/----0-------0-------0-------2---
D/----0-------0-------2----0--0---
A/----2----2--2----0--0-----------
E/-3--3-------3-------------------
[ Tab from: http://www.guitartabs.cc/tabs/j/justincase/when_my_heart_falls_down_tab.html ]
      G       G      A7sus    D
E/----3-------3-------3-------2---
B/----3-------3-------3-------3---
G/----0-------0-------0-------2---
D/----0-------0-------2----0--0---
A/----2----2--2----0--0-----------
E/-3--3-------3-------------------

G                    G
  When my heart falls down 

   A7sus                 Dsus4
In troubled times, I won't let it die

G                    G
  When my heart falls down

  A7sus             D      
Into your arms, I begin to cry 



(verse)
(play once before words)

(2nd time)
The end seemed twisted
Like my soul

(3rd time)
That now seems wreckless
With no control

(4th time)
I wasn't much with love
Till I found you

(5th time)
I wasn't much for hate
Till I lost you 



(chorus)



(bridge)
C                    D             G
   so i cut all the hair that you love

C                    D    G
   so i could start over

C                       D              G
   and i kept all the things that you left

C              D    G
   so i could remember



(chorus)



(bridge 2)
(i'm not sure if this is right, but it works)

C  G

C                  G
   in passion we fight

C           G
   can overcome

C               G
   all that's said

C                   G
   and all that's done

C                G
   and i will change

C          G
   all i knew

C               G
   and i will rise above

D
   everything

D                  G
   everything but you



(chorus)


---

any questions/comments - ilovemusicx@aol.com
Comments