Justincase - Dont Cry For Us Chords & Tabs

 

Dont Cry For Us Chords & Tabs

Justincase Chords & Tabs

Version: 1 Type: Tab 0 ratings
1 star 2 stars 3 stars 4 stars 5 stars
comments

Dont Cry For Us Tab

Justincase - Don't cry for us
Tabbed by Darlene J.
Email me at dj8008@hotmail.com
Tuning: DADDDD
Intro and Verse:
(figure out strumming pattern)
D------------------------------------------------------------------|
D------------------------------------------------------------------|
D------------------------------------------------------------------|
D-0-0-0--0--0-0-0--0--0---0-0--0--0--0--0-0-0-0--0-0---------------|
A-7-7-7--7--9-9-9-10--10--9-9--7--7--7--9-9-9-5--5-5---------------|
D-0-0-0--0--0-0-0-0---0---0-0--0--0--0--0-0-0-0--0-0---------------|
It's hard to know just what to do in times like these
It's hard to know just what to say
And I'm just sitting here just asking myself why
It's good to know you feel the same 

D-0-0-0-0-0-0-0-0-0-0-0-0----------------------------------|
D-0-0-0-0-0-0-0-0-0-0-0-0----------------------------------|
D-0-0-0-0-0-0-0-0-0-0-0-0----------------------------------|
D-4-4-4-5-5-5-4-4-4-5-5-5----------------------------------|
A-4-4-4-5-5-5-4-4-4-5-5-5----------------------------------|
D-4-4-4-5-5-5-4-4-4-5-5-5----------------------------------|
And I believe I want to be your everything
And anything you need. 

Chorus:
D-0-0-0-0-0-0-0-0-0-0-0-0-----------------------0-----------|
D-0-0-0-0-0-0-0-0-0-0-0-0-----------------------0-----------|
D-0-0-0-0-0-0-0-0-0-5-5-5-----------------------0-----------|
D-9-9-9-7-7-7-5-5-5-5-5-5-----end on this chord-5-----------|
A-9-9-9-7-7-7-5-5-5-7-7-7-----------------------5-----------|
D-9-9-9-7-7-7-5-5-5-----------------------------5-----------|
Don't cry for us tonight
Don't cry we'll be all right
If I could I'd be by your side
Don't cry for us 
[ Tab from: http://www.guitartabs.cc/tabs/j/justincase/dont_cry_for_us_tab.html ]
Verse:
D------------------------------------------------------------------|
D------------------------------------------------------------------|
D------------------------------------------------------------------|
D-0-0-0--0--0-0-0--0--0---0-0--0--0--0--0-0-0-0--0-0---------------|
A-7-7-7--7--9-9-9-10--10--9-9--7--7--7--9-9-9-5--5-5---------------|
D-0-0-0--0--0-0-0-0---0---0-0--0--0--0--0-0-0-0--0-0---------------|
You know that I'd give anything to watch you sleep
I can picture you just lying there
We don't need to say the words 'cause they don't mean a thing
You know you're not alone when someone cares. 

D-0-0-0-0-0-0-0-0-0-0-0-0-------------------------------0---|
D-0-0-0-0-0-0-0-0-0-0-0-0-------------------------------0---|
D-0-0-0-0-0-0-0-0-0-0-0-0-------------------------------0---|
D-4-4-4-5-5-5-4-4-4-5-5-5-When-heading-into-the-chorus--7---|
A-4-4-4-5-5-5-4-4-4-5-5-5-move-up-to-this-chord---------7---|
D-4-4-4-5-5-5-4-4-4-5-5-5-------------------------------7---|
I believe, you are still my anything
And everything I need

Chorus:
D-0-0-0-0-0-0-0-0-0-0-0-0-----------------------0-----------|
D-0-0-0-0-0-0-0-0-0-0-0-0-----------------------0-----------|
D-0-0-0-0-0-0-0-0-0-5-5-5-----------------------0-----------|
D-9-9-9-7-7-7-5-5-5-5-5-5-----end on this chord-5-----------|
A-9-9-9-7-7-7-5-5-5-7-7-7-----------------------5-----------|
D-9-9-9-7-7-7-5-5-5-----------------------------5-----------|
Don't cry for us tonight
Don't cry we'll be all right
If I could I'd be by your side
Don't cry for us 

Bridge:
(figure out sturmming)
      Tap     Tap     Tap
D-0-0-----0-0-----0-0-----0-0-0-0-0--------------------------0-------------|
D-0-0-----0-0-----0-0-----0-0-0-0-0--------------------------0-------------|
D-5-5-----5-5-----4-4-----4-4-4-2-2----end on this chord-----0-------------|
D-5-5-----5-5-----4-4-----4-4-4-2-2--------------------------5-------------|
A-7-7-----3-3-----2-2-----2-2-2-0-0--------------------------5-------------|
D------------------------------------------------------------5-------------|
Built of steel, we may seem weak and rusted
But in times like these we've always won and trusted
in ourselves 

Chorus

Verse:
D------------------------------------------------------------------|
D------------------------------------------------------------------|
D------------------------------------------------------------------|
D-0-0-0--0--0-0-0--0--0---0-0--0--0--0--0-0-0-0--0-0---------------|
A-7-7-7--7--9-9-9-10--10--9-9--7--7--7--9-9-9-5--5-5---------------|
D-0-0-0--0--0-0-0-0---0---0-0--0--0--0--0-0-0-0--0-0---------------|
It's hard to know just what to do in times like these
It's hard to know just what to say
End on this chord
D-0---------------------|
D-0---------------------|
D-0---------------------|
D-5---------------------|
A-5---------------------|
D-5---------------------|
Comments