Justin Timberlake - Rock Your Body Chords & Tabs

 

Rock Your Body Chords & Tabs

Justin Timberlake Chords & Tabs

Version: 3 Type: Bass Tab 0 ratings
1 star 2 stars 3 stars 4 stars 5 stars
comments

Rock Your Body Bass Tab

----------------------------------------------------------------------------
			     Rock Your Body - Justin Timberlake
                                        Bass Tab
----------------------------------------------------------------------------

Tabbed by: jcledzeppelin
Email:     jcledzeppelin@hotmail.com

Tuning: Standard

Main Riff (1st Version)
[ Tab from: http://www.guitartabs.cc/tabs/j/justin_timberlake/rock_your_body_btab_ver_3.html ]
G|--2--2---4-------4--4-------------------------------------------|
D|---------------------------2---2----0----2----------------------|
A|----------------------------------------------------------------|
E|----------------------------------------------------------------|

Main Riff (2nd Version)


G|----------------------------------------------------------------|
D|----------------------------------------------------------------|
A|--0---0---2-------2---2-----------------------------------------|
E|----------------------------2---2----0----2---------------------|

This is the first tab i've written and it was done from memory so it may not be
100% accurate but i'm pretty sure it's somwhere near.I'm also sure that it's
better than the tabs i've previously found for the song.
Enjoy. =)
Comments