Justin Timberlake - Like I Love You Chords & Tabs

 

Like I Love You Chords & Tabs

Justin Timberlake Chords & Tabs

Version: 3 Type: Tab 0 ratings
1 star 2 stars 3 stars 4 stars 5 stars
comments

Like I Love You Tab

Yo this is my first tab that I have POSTED UP.
Its pretty easy, Thats all. 


PLAYED THROUGH THE WHOLE SONG
E----------------------------------------------------------------
B----------------------------------------------------------------
G---4---4-4-4----4---4-4-4----4-4---4-4-4---4-4-5-5--2-----------
D---4---4-4-4----4---4-4-4----4-4---4-4-4---4-4-5-5--2-----------
A---2---2-2-2----2---2-2-2----2-2---2-2-2---2-2-3-3--0-----------
E----------------------------------------------------------------
[ Tab from: http://www.guitartabs.cc/tabs/j/justin_timberlake/like_i_love_you_tab_ver_3.html ]
E--7--5--2------------------------|--0----2------|
B--7--5--2------------------------|--0----2------|
G--7--5--2---(REPEAT THREE TIMES)-|--0----2------|
D---------------------------------|--------------|
A---------------------------------|--------------|
E---------------------------------|--------------|

E----7--8--12-13------------------7--8--12-7--------------------- 
B----------------------------------------------------------------
G----------------------------------------------------------------
D----------------------------------------------------------------
A----------------------------------------------------------------
E----------------------------------------------------------------
Comments