Justin Timberlake - Like I Love You Chords & Tabs

 

Like I Love You Chords & Tabs

Justin Timberlake Chords & Tabs

Version: 2 Type: Tab 0 ratings
1 star 2 stars 3 stars 4 stars 5 stars
comments

Like I Love You Tab

This is the basics of the guitar part of the song, there may be more to it.
but this is my first time tabbing a song.
[ Tab from: http://www.guitartabs.cc/tabs/j/justin_timberlake/like_i_love_you_tab_ver_2.html ]
E---------------|---------------|---------------|
B---------------|---------------|---------------|
G---------------|---------------|---------------|
D---9---9-9-9---|---9---9-9-9---|---9---9-9-9---|
A---9---9-9-9---|---9---9-9-9---|---9---9-9-9---|
E---7---7-7-7---|---7---7-7-7---|---7---7-7-7---|

E-----------------|
B-----------------|
G-----------------|
D-9-9--10-10--7-7-|
A-9-9--10-10--7-7-|
E-7-7---8--8--5-5-|



Tabbed by: miechoda
Comments