Justin King - Something About Angles Chords & Tabs

 

Something About Angles Chords & Tabs

Justin King Chords & Tabs

Version: 1 Type: Tab 0 ratings
1 star 2 stars 3 stars 4 stars 5 stars
comments

Something About Angles Tab

By ErikvdP
Well this is truely my first tab.  I got most of it, but you will probably find there
are some missing notes. Aww well, There wasn't a tab on line so I decide I would tab
it for my self.  Its pretty fast paced.  I put my hands in chord positions and then
pluck the right notes.  Good Luck and I hope it's Good.
[ Tab from: http://www.guitartabs.cc/tabs/j/justin_king/something_about_angles_tab.html ]
h=Hammer On
p=Release/Pluck Off
e:------------|-----0------|--0h2p------|-------0----|------------|
B:-------3----|---3-----3--|------3-----|-----3------|--3--0h2h3p2|
G:-----2------|-2-----2----|------------|---2--------|-2----------|
D:---0-----0--|------------|------------|-2-------2--|------------|
A:-0----------|------------|------------|------------|------------|
E:------------|------------|------------|------------|------------|

e:--------0---|--2p0-------|-----0------|--0h2p------|
B:------3-----|------3-----|---3-----3--|------3-----|
G:----2-------|------------|-2-----2----|------------|
D:--4---------|----------0-|------------|------------|
A:------------|------------|------------|------------|
E:------------|------------|------------|------------|

CHORDS
e:--2---3---0--------|
B:--3---3---0--------|
G:--2---0---0--------|
D:--0---2---2--------|
A:--0---2---2--------|
E:--x--(0)--0--------|
Comments