Justin Bieber - Beauty And A Beat Chords & Tabs

 

Justin Bieber Chords & Tabs

Version: 2 Type: Tab 0 ratings
1 star 2 stars 3 stars 4 stars 5 stars
comments

Beauty And A Beat Tab

   
Beauty and a Beat - Justin Bieber Ft. Nicki Minaj
tabbed by Kevin Lee

because no one has the basic F Dm Am C of this song down right, and because
a bassline tab is still missing.


(/) Slide Up  (\) Slide Down  (h) Hammer On  (p) Pull Off  (b) Bend (r) Release (v) Vibrato
pm - palm mute

VERSE BASSLINE
the most interesting part and the whole point of making this tab
transposed for guitar... i notated which parts are an octave high since guitar can't go 
that low
in case anyone was interested

E|--------------------------------------------------|
B|--------------------------------------------------|
G|----------------------------------------7-----5---|
D|-----------------3--------------------------------|
A|-----------------------3/5--5--5--5--5-----5------|
E|--1--1--1--1--1-----1-----------------------------|

                         8va------------------------


E|--------------------------------------------------|
B|--------------------------------------------------|
G|--------------------------------------------4--5--|
D|--------------------------------------5--7--------|
A|--------------------------------------------------|
E|--5--5--5--5--5--5--5--8--3--3--3--3--------------|



INTRO/VERSE CHORDS, play each chord for 2 measures
all the verse sections are the same, even the intro, so repeat
obviously repeat the chords/pick a strum pattern you like

[ Tab from: http://www.guitartabs.cc/tabs/j/justin_bieber/beauty_and_a_beat_tab_ver_2.html ]
   show you off..... tonight i wanna show you off
E|--1---------------1-----------------0---------------3--|
B|--1---------------3-----------------1---------------3--|
G|--2---------------2-----------------2---------------0--|
D|--3---------------0-----------------2---------------0--|
A|--3---------------0-----------------0---------------2--|
E|--1-------------------------------------------------3--|

    F               Dm                Am              G

i personally like to scratch/slap some of these,
and play the G chord like so:

E|--3--
B|--3--
G|--0--
D|--0--
A|--X--
E|--3--

or powerchords, muted for interestingness....
(the chord changes here are the same)
take some liberalness to it otherwise it will be very boring.

E|--------------------------|
B|-----------------3--1-----|
G|-----7--------2--2--2--0--|
D|--3--7--7--5--3--0--2--0--|
A|--3--5--7--5--3--0--0--2--|
E|--1-----5--3--1--------3--|
    pm pm pm pm pm pm pm pm

    F  Dm Am G  F  Dm Am G


CHORUS/prechorus thing

E|--1--3--0--0--|
B|--1--3--1--1--|
G|--2--0--2--0--|
D|--3--0--2--2--|
A|--3--2--0--3--|
E|--1--3--------|

    F  G  Am C

again play this more interestingly for fun


BREAKDOWN

E|--0--------------|
B|--1--------------|
G|--2--------------|
D|--2--or--7-X-7---|
A|--0------7-X-7---|
E|---------5-X-5---|

    Am     Am

play this with a cool strum pattern/scratching/palm muting
and you won't sound out of place
                                                        http://www.guitartabcreator.com
Comments