Justin Bieber - Baby Chords & Tabs

 

Justin Bieber Chords & Tabs

Version: 1 Type: Tab 0 ratings
1 star 2 stars 3 stars 4 stars 5 stars
comments

Baby Tab

Baby - Justin Bieber

This is the tab for the acoustic version of Baby, the one he and his guitarist played on 
YouTube video and most likely the same live performance.

The way the guitarist plays this song, he palm mutes the single note on the low E 
This does take practice to get it down, but just try and play along with it.

During the chorus you can just strum it freely, but I like to play it like this.

Enjoy.


INTRO/VERSES

   * *      *****         * *      *****
E|------9-----------9--9-------9-----------9--9-|
B|------9-----------9--9-------9-----------9--9-|
G|-----10---xxxxx--11-10------10---xxxxx--11-10-|
D|-----11---xxxxx---x--x------11---xxxxx---x--x-|
A|-----11---xxxxx--11-11------11---xxxxx--11-11-|
E|-9-9------99999---------9-9------99999--------|


   * *     *****         * *      *****
E|-----6-----------6--6-------6-----------6--6--|
B|-----6-----------6--6-------6-----------6--6--|
G|-----6---xxxxx---8--6-------6---xxxxx---8--6--|
D|-----8---xxxxx---x--x-------8---xxxxx---x--x--|
A|-----8---xxxxx---8--8-------8---xxxxx---8--8--|
E|-6-6-----66666---------6-6------99999---------|


   * *     *****         * *      *****
E|-----------------2--2-------------------------|
B|-----------------4--2-------------------4--2--|
G|-----3---xxxxx---3--3-------3---xxxxx---3--3--|
D|-----4---xxxxx---x--x-------4---xxxxx---x--x--|
A|-----4---xxxxx---4--4-------4---xxxxx---4--4--|
E|-2-2-----22222---------2-2------22222---------|

[ Tab from: http://www.guitartabs.cc/tabs/j/justin_bieber/baby_tab.html ]
   * *     *****         * *      *
E|-----4-----------4--4-------4-----------------|
B|-----4-----------4--4-------4-----------------|
G|-----5---xxxxx---5--5-------5-----------------|
D|-----6---xxxxx---6--6-------6-------4---------|
A|-----6---xxxxx---6--6-------6-------4---------|
E|-4-4-----44444---------4-4------4---4---------|


CHORUS

         xx         x        xx         x
E|----------------------------------------|
B|----------------------------------------|
G|---10-1010----10-10----10-1010----10-10-|
D|---11-1111----11-11----11-1111----11-11-|
A|---11-1111----11-11----11-1111----11-11-|
E|-9--9-----9-9--9--9--9--9-----9-9--9--9-|


        xx      x       xx      x
E|--------------------------------|
B|--------------------------------|
G|---6--66----6-6----6--66----6-6-|
D|---8--88----8-8----8--88----8-8-|
A|---8--88----8-8----8--88----8-8-|
E|-6-6----6-6-6-6--6-6----6-6-6-6-|


        xx      x       xx      x
E|--------------------------------|
B|--------------------------------|
G|---3--33----3-3----3--33----3-3-|
D|---4--44----4-4----4--44----4-4-|
A|---4--44----4-4----4--44----4-4-|
E|-2-2----2-2-2-2--2-2----2-2-2-2-|


        xx      x       xx
E|--------------------------------|
B|--------------------------------|
G|---5--55----5-5----5--55--------|
D|---6--66----6-6----6--66----44--|
A|---6--66----6-6----6--66----44--|
E|-4-4----4-4-4-4--4-4----4-4-44--|

FILLS

(2nd time in verse)
   * *      *****         * *
E|------9-----------9--9-------9---9----|
B|------9-----------9--9-------9---9----|
G|-----10---xxxxx--11-10------10--10--9-|
D|-----11---xxxxx---x--x------11--11-10-|
A|-----11---xxxxx--11-11------11--11-10-|
E|-9-9------99999---------9-9------9--8-|


(at the end)
        xx      x       xx
E|----------------------------------------9---|
B|----------------------------------------9---|
G|---5--55----5-5----5--55----5----------10---|
D|---6--66----6-6----6--66----6----------11---|
A|---6--66----6-6----6--66----6----------11---|
E|-4-4----4-4-4-4--4-4----4-4-4-----------9---|


LEGEND:

* - PALM MUTE
x - SCRATCH
Comments
Justin Bieber chords | Justin Bieber Baby tab