Justifide - Still Cries Chords & Tabs

 

Still Cries Chords & Tabs

Justifide Chords & Tabs

Version: 3 Type: Tab 0 ratings
1 star 2 stars 3 stars 4 stars 5 stars
comments

Still Cries Tab

Song: Still Cries
Band:Justifide
Album: Life Outside The Toybox
Copyright:Cul De Sac Records/Ardent Records

This is a really easy song to play;I Tabbed it in Dropped D tuning
but it might be in a different tuning
[ Tab from: http://www.guitartabs.cc/tabs/j/justifide/still_cries_tab_ver_3.html ]
Dropped D tunning
“( )” means notes in them are optional
Verse:Strum each chord(listen to the Cd to get the pattern)
She dreams.........she cries.........never
e------------------------------------------------
B------------------------------------------------
G-------6----------------9--------------2--------
D-------4----------------7--------------0--------
A-------4----------------7--------------0--------
D-------4----------------7--------------0--------
Repeat these chords through out all the verse’s

Chorus:
I am  alone...child...he go
e-------------------------------------------------
B-------------------------------------------------
G-(6)------7-----(9)--------(4)-------------------
D--4-------7------7----------2--------------------
A--4-------5------7----------2--------------------
D--4------(0)-----7----------2--------------------

Repeat through out the whole chorus

Then the ending plays the samething as the verse but they pick it.
well hoped this helped...e-mail me if u have any questions.God bless

Nate
Comments