Justifide - 9 Outta 10 Chords & Tabs

 

9 Outta 10 Chords & Tabs

Justifide Chords & Tabs

Version: 1 Type: Bass Tab 0 ratings
1 star 2 stars 3 stars 4 stars 5 stars
comments

9 Outta 10 Bass Tab

 Artist: Justifide
Song: 9 Out of 10
Album: Life Outside the Toybox

Tabbed by: "Sat"  I saw these guys play a show around my area
and I was suprised by how good they are.  I'm sure it's not perfect
but it sounds good enough for me. Oh yeah, Hi to #bassplayer of EFnet!

Verse
G:--------------------------------------------
D:--------------------------------------------
A:--3-555--3-555--3-555--3-555----------------
E:-----------------------------1-33333333-1-1-

Chorus
G:---------------------5--
D:-----------5-3-0-3-4----
A:--5--5--5---------------
E:------------------------
[ Tab from: http://www.guitartabs.cc/tabs/j/justifide/9_outta_10_btab.html ]
Verse
G:--------------------------------------------
D:--------------------------------------------
A:--3-555--3-555--3-555--3-555----------------
E:-----------------------------1-33333333-1-1-

Chorus
G:---------------------5--
D:-----------5-3-0-3-4----
A:--5--5--5---------------
E:------------------------

Play this a few times before the outro
G:---------------------------
D:--------------5-3-0-3-4-5--
A:--55--55--55---------------
E:---------------------------

Outro
G:-----------------------------------------------|
D:------------5-3-0-3-4-5---------------5-3-0-3-4|
A:55--55--55-----------------55--55--55----------|
E:-----------------------------------------------|
Comments