Jurassic 5 - How We Get Along Chords & Tabs

 

How We Get Along Chords & Tabs

Jurassic 5 Chords & Tabs

Version: 1 Type: Bass Tab 0 ratings
1 star 2 stars 3 stars 4 stars 5 stars
comments

How We Get Along Bass Tab

Jurassic 5 - How we get along
Tabbed by Maxi (maxx8711@aol.com)

Riff I

G------77-7-7-575---75---|
D----------------7----7--|
A---5--------------------|
E------------------------|

[ Tab from: http://www.guitartabs.cc/tabs/j/jurassic_5/how_we_get_along_btab.html ]
Riff II

G------77-57------57-77-575---75----|
D-------------457----------7----7---|
A---5--------5----------------------|
E-----------------------------------|


Thatīs it!
Rock on! Max
Comments