Jupiter Sunrise - Cherry Wine Chords & Tabs

 

Cherry Wine Chords & Tabs

Jupiter Sunrise Chords & Tabs

Version: 1 Type: Tab 0 ratings
1 star 2 stars 3 stars 4 stars 5 stars
comments

Cherry Wine Tab

it goes something like this...

INTRO 4x (i think)
e|-22---------33----33------------------------
B|-33-22---------------22---------------------
G|-22-22-4444----44----22---------------------
D|----22-4444----44----22---------------------
A|-------2222-22-22-22------------------------
E|------------33----33------------------------
[ Tab from: http://www.guitartabs.cc/tabs/j/jupiter_sunrise/cherry_wine_tab.html ]
"Why not drown me"(palm mute)/CHORUS(no palm mute) 4x
e|--------------------------------------------
B|--------------------------------------------
G|-77-----------------------------------------
D|-77-77-99-55--------------------------------
A|-55-77-99-55--------------------------------
E|----55-77-33--------------------------------

OUTRO
e|-----------------------------------------------
B|-----------------------------------------------
G|-7777/999/111111/121212--777/999-4444----------
D|-7777/999/111111/121212--777/999-4444-5555-----
A|-5555/777/9-9-9-/101010--555/777-2222-5555-----
E|--------------------------------------3333-----
Comments