Junoon - Zamanay Ke Andaz Chords & Tabs

 

Zamanay Ke Andaz Chords & Tabs

Junoon Chords & Tabs

Version: 1 Type: Tab 0 ratings
1 star 2 stars 3 stars 4 stars 5 stars
comments

Zamanay Ke Andaz Tab

 All tabs are submitted by poma from NY, Jackson heights. If you want to contect me or have
any question feel free to e mail me at Pmoniq8@aol.com. 

 1st Intro goes like this
E-------/--------/-------/---------------------
B-------/--------/--7--9 /---------------------
G-------/--4--6-8/------ /-8b-6--6-------------
D--6--7-/--------/------ /---------------------
A-------/--------/-------/---------------------
E-------/--------/------ /---------------------
[ Tab from: http://www.guitartabs.cc/tabs/j/junoon/zamanay_ke_andaz_tab.html ]
2nd intro goes like this
E------/----------/----------------------/------------
B------/----------/--7--9b--7--5--4--5--4/------------
G------/--4--6b--8/----------------------/--6--4--6b--
D--6--7/----------/----------------------/------------
A------/----------/----------------------/------------
E------/----------/----------------------/------------

Song stats like this. Keep playing these two cords over and over. 
E-0--------/---0--------/---0-------/---0--------------------
B----4-----/-----7------/-----4-----/-----7------------------
G-------6--/---------9--/--------6--/-------9----------------
D-------6--/---------9--/--------6--/-------9---------------
A-----5----/-------8----/-------5---/------5-----------------
E-0--------/---0--------/----0------/-----------------------
Comments