Junoon - Sayonee Chords & Tabs

 

Sayonee Chords & Tabs

Junoon Chords & Tabs

Version: 4 Type: Tab 0 ratings
1 star 2 stars 3 stars 4 stars 5 stars
comments

Sayonee Tab

   
INTRO(Figure-1):
================

----10-------10-------10-------10-------10-------10-------10-------10-|
-10----10-10----10-10----10-10----10-11----11-11----11-10----10-10----|
----------------------------------------------------------------------|
----------------------------------------------------------------------|
----------------------------------------------------------------------|
----------------------------------------------------------------------|
							  Pls. look at the Note.
-------13-------13-------10-------10-----------10-------10--10-10-10--|
-10-10----11-11----11-11----10-10----10-----11-------11-----10-10-10--|
-----------------------------------------12-------12--------10-10-10--|
------------------------------------------------------------10-10-10--|
----------------------------------------------------------------------|
----------------------------------------------------------------------|

Note: actually the last strums are of D min on G B E strings, but this inverted
chord pretty much sounds similar and easier to play.


Figure-2
========

Dm              twice  Dm       Cm
--5--5-5-5--5-5-5------5--5-5-5--3-3-3---3--3-3-3--3-------------------|
--6--6-6-6--6-6-6------6--6-6-6--4-4-4---4--4-4-4--4-------------------|
--7--7-7-7--7-7-7------7--7-7-7--5-5-5---5--5-5-5--5-------------------|
--7--7-7-7--7-7-7------7--7-7-7--5-5-5---5--5-5-5--5-------------------|
--5--5-5-5--5-5-5------5--5-5-5--3-3-3---3--3-3-3--3-------------------|
-----------------------------------------------------------------------|

Sayonee..Sayonee..
repeat Fig.2 groove in Dm


Chain ik pal nahi..
..aur koi hal nai.
Fig-2 with above
----------------

Sayonee..

Figure-3
========

Part-I		              Part-II
-----			      -------
Dm   Em               Dm          Em	    Dm
--5--7-7-7-7-7--7-------------5--7-7-7-7-7--5-5-5-5-5-6-|
--6--8-8-8-8-8--9-------------6--8-8-8-8-8--6-6-6-6-5-6-|
--7--9-9-9-9-9--9-7-7-7-7-7---7--9-9-9-9-9--------------|
--7--9-9-9-9-9--9-7-7-7-7-7---7--9-9-9-9-9--------------|
--5--7-7-7-7-7--7-5-5-5-5-5---5--7-7-7-7-7--------------|
--------------------------------------------------------|

Dm   Em               Dm          Em
--5--7-7-7-7-7--7-------------5--7-7-7-7-7--5\---------|
--6--8-8-8-8-8--9-------------6--8-8-8-8-8--6\---------|
--7--9-9-9-9-9--9-7-7-7-7-7---7--9-9-9-9-9--7\---------|
--7--9-9-9-9-9--9-7-7-7-7-7---7--9-9-9-9-9--7\---------|
--5--7-7-7-7-7--7-5-5-5-5-5---5--7-7-7-7-7--5\---------|
-------------------------------------------------------|


Kon morae muhar..(2)
(repeat Fig.3 part I and II and then part I)
..Koi Sanval nahin
Dm     Em  Dm Dm Dm Dm

Sayoonee, Sayoonee..
(repeat Fig.2 groove in Dm)

Chen ik pal nahin...
..Aur koi hal nahin
Fig.2 with above lines
---------------------
Sayoonee, Sayoonee..
(repeat Fig.2 groove in Dm)

Repeat Fig.3
-------------

Kya Bashar ki bisaat...(2)
(repeat Fig.3 part-I with above)

..Kya Bashar ki bisaat..(2)
(repeat Fig.3 both part-I and part-II, and then part-I)
..aaj hai kal nahi.
Dm 	Em  Dm Dm Dm Dm


Sayoonee, Sayoonee..
(repeat Fig.2 groove in Dm)

Chen ik pal nahin...
..Aur koi hal nahin
Fig.2 with above lines
---------------------
Sayoonee, Sayoonee..
(repeat Fig.2 groove in Dm)

Guitar Solo:
============

repeat Fig-1
------------
[ Tab from: http://www.guitartabs.cc/tabs/j/junoon/sayonee_tab_ver_4.html ]
--------------------------------------11------------------------------|
------10^11-11v10p8-11-10~~---8-10-11----11-11-10~~-------------------|
----------------------------------------------------------------------|
----------------------------------------------------------------------|
----------------------------------------------------------------------|
----------------------------------------------------------------------|

-----12^13--12-10-----------------------------------------------------|
------------------13^15~~-13-11-10------------------------------------|
-----------------------------------12-10~~--10-9----------------------|
-------------------------------------------------12~~-----------------|
----------------------------------------------------------------------|
----------------------------------------------------------------------|

--17^18-18v17p15-18^20-18~~--20-18----18-17----17-15----15-13----12-10-|
-----------------------------------18-------17-------15-------13-------|
-----------------------------------------------------------------------|
-----------------------------------------------------------------------|
-----------------------------------------------------------------------|
-----------------------------------------------------------------------|

---------------------------------5-----------5----------5-------------|
-10---8^10~~~8^10v8p6--8^10~~------8^10v8p6---8^10v8p6---8^10v8p6-----|
----------------------------------------------------------------------|
----------------------------------------------------------------------|
----------------------------------------------------------------------|
----------------------------------------------------------------------|

----------------------------------------------------------------------|
-15----------------13-------------------------------------------------|
-14-14^15v14p12----12-------------------------------------------------|
----------------14--------3-0--5-3-0-3-0-5-3-0-3-0-0------------------|
----------------------------------------------------------------------|
----------------------------------------------------------------------|

-----------------------------------------15-17^19v17-17--17^19---------|
-15^17~~-17v15p12-17^19~~~--17----15-17----------------15-----15-15-15-|
-------------------------------14--------------------------------------|
-----------------------------------------------------------------------|
-----------------------------------------------------------------------|
-----------------------------------------------------------------------|


-8-x-10-10-10-10-10--8-x-7-7-7-7-7------------------------------------|
-6-x-8--8--8--8--8---6-x-5-5-5-5-5------------------------------------|
----------------------------------------------------------------------|
----------------------------------------------------------------------|
----------------------------------------------------------------------|
----------------------------------------------------------------------|

-8-x-10-10-10-10-10-10/12-12-12-12-12-12-12---------------------------|
-6-x-8--8--8--8--8---8/10-10-10-10-10-10-10---------------------------|
----------------------------------------------------------------------|
----------------------------------------------------------------------|
----------------------------------------------------------------------|
----------------------------------------------------------------------|

-8-x-10-10-10-10-10--8-x-7-7-7-7-7----8-x-10-10-10-10-10--7\------------|
-6-x-8--8--8--8--8---6-x-5-5-5-5-5----6-x-8--8--8--8--8---5\------------|
------------------------------------------------------------------------|
------------------------------------------------------------------------|
------------------------------------------------------------------------|
------------------------------------------------------------------------|


Chor Meri Khata..,(2)
(repeat Fig.3 part-I with above)

..Chor Meri Khata(2)
(repeat Fig.3  part I and II and then part I)
..Tu, to pagal nahin
Dm       Em    Dm Dm Dm Dm

Sayoonee Sayoonee..
Repeat Fig.2 groove in Dm with above
Comments