Junoon - Sayonee Chords & Tabs

 

Sayonee Chords & Tabs

Junoon Chords & Tabs

Version: 3 Type: Tab 0 ratings
1 star 2 stars 3 stars 4 stars 5 stars
comments

Sayonee Tab

   
Sayyonee

On this one, all I have is the intro (or parts of it, anyway). I think I know how to play other parts of 
song, but I've decided not to write anything until I'm sure. Maybe you guys have any suggestions?


-------10-----------10-----------10-----------10-------|
--10------10----10-----10----10-----10----10-----10----|
-------------------------------------------------------|
-------------------------------------------------------|
-------------------------------------------------------|
-------------------------------------------------------|

-------10-----------10-----------10-----------10-------|
--11------11----11-----11----10-----10----10-----10----|
-------------------------------------------------------|
-------------------------------------------------------|
-------------------------------------------------------|
-------------------------------------------------------|

-------13-----------13------------9----------9---------|
--10------10----10------------8-----8----8-----8-------|
-------------------------------------------------------|
-------------------------------------------------------|
-------------------------------------------------------|
-------------------------------------------------------|

[ Tab from: http://www.guitartabs.cc/tabs/j/junoon/sayonee_tab_ver_3.html ]
				Dm
-------10-------8----------------1----------------------|
-----8--------9---9--------------3----------------------|
--10--------9-------9------------2----------------------|
---------------------------------0----------------------|
---------------------------------0----------------------|
--------------------------------------------------------|

Then, when Ali sings "sayonee----eee-----eeee", it goes like;

	      F             G                A
Sayo         neee         eeeeee         eeeeeeeeee
--------------1-------------3----------------5-------------|
--------------1-------------3----------------5-------------|
--------------2---/---/-----4----/---/----/--6---/---/-----|
--------------3-------------5----------------7-------------|
--------------3-------------5----------------7-------------|
--------------1-------------3----------------7-------------|

The slashes indicate that just keep on striking the chords
with feeling.

Then after singing "sayonee...ee...ee" a couple of times,
play this:
--1---3--3----1---0--0----1---3--3----5--5--5--5--5--5--5--5-|
--3---3--3----3---2--2----3---3--3----6--6--6--6--6--6--6--6-|
--2---2--2----2---2--2----2---2--2----7--7--7--7--7--7--7--7-|
-------------------------------------------------------------|
-------------------------------------------------------------|
-------------------------------------------------------------|

Usman Haroon
usmanh_81@yahoo.com
Comments