Junoon - Sayonee Chords & Tabs

 

Sayonee Chords & Tabs

Junoon Chords & Tabs

Version: 1 Type: Tab 0 ratings
1 star 2 stars 3 stars 4 stars 5 stars
comments

Sayonee Tab

   
    the lead of this song is great just try to play it.
   
    



|---12---12---12---12-|---12---12---12---12|---15---15---14---14|
|12---12---12---12----|13---13---12---12---|12---12---12---12---|
|---------------------|--------------------|--------------------|
|---------------------|--------------------|--------------------|
|---------------------|--------------------|--------------------|
|---------------------|--------------------|--------------------|
[ Tab from: http://www.guitartabs.cc/tabs/j/junoon/sayonee_tab.html ]
|------12-------12--------------|
|---10-------10-----------------|
|12-------11-------12--11--9----|
|-------------------------------|
|-------------------------------|
|-------------------------------|

  Em   [A]*3  Em   [D]*3  Em  [A]*5 [Aadd9]*3
|-3----5------------2-----------------7--------|
|-5----5------------3-----------------5--------|
|-4----6------------2-----------------6--------|
|------7------------------------------7--------|
|----------------------------------------------|
|----------------------------------------------|

then repeat these chords again without playing Aadd9


then song starts with
           C    D    Em  
     O Sayoneeeeeeeeeeeee

rest you figure it out.

any suggestions mail: epslon2000 @yahoo.com
Comments