Junoon - Sayone Chords & Tabs

 

Sayone Chords & Tabs

Junoon Chords & Tabs

Version: 1 Type: Tab 1 rating
1 star 2 stars 3 stars 4 stars 5 stars
comments

Sayone Tab

   
sayonee

chords used

Dm xx0231
Dm/A#(Bb) xx0331
A1 x02220
A2 577655
A3 x02225
A# x13331
C x32010


---10---------10--------10-------10-------10-------10-------10-------10-------13-------13-
10----10--10-----10-10-----10-10----10-11----11-11----11-10----10-10----10-10----10-10----
------------------------------------------------------------------------------------------
------------------------------------------------------------------------------------------
------------------------------------------------------------------------------------------
------------------------------------------------------------------------------------------


--9-----9--------10---------8----------------1-------
8---8-8------- 8---------8-------------------3-------
-----------10---------9--------10--9---------2-------
---------------------------------------------0-------
-----------------------------------------------------
-----------------------------------------------------

Dm/A# Dm, Dm/A# Dm, Dm/A# Dm, Dm/A# Dm,  A3~  (Strum Dm/A3 only once each time)

Chorus 
[ Tab from: http://www.guitartabs.cc/tabs/j/junoon/sayone_tab.html ]
Sayoneeeeeee
A# (Or Dm/A#) - C - Dm

Pre Chorus

Chain ek pal nahein                            
Dm/A# Dm, Dm/A# Dm, Dm/A# Dm, 

Aur Koye hal nahein
Dm/A# Dm,  A3


Verse
Kon morae muhar ....Muhaaahar
Dm/A#     Dm         Dm

Kon morae muhaaaaaaaaaaaaaar
Dm        Dm/A# - C - Dm - Dm/A#

Kon morae muhar
Dm/A#     Dm

Koi Sawal nahein Hayyyy
    A#     C      Dm

Then
Pre Chorus
Chorus


Then This Riff
Strum each...listen and figure
--1--3--1---0--1--3--5---1--3---1--0---1--3----5--------------------------------------
--3--3--3---3--3--3--6---3--3---3--2---3--3----2--------------------------------------
--2--2--2---2--2--2--7---2--2---2--2---2--2----2---------------------------------------
--0--0--0---0--0--0--0---0--0---0--0---0--0----2-------------------------------------
------------------------------------------------------------------------------------
--------------------------------------------------------------------------------------
 

Solo
Dm/A# Dm, Dm/A# Dm, F, G (
Comments