Junoon - Saqi Nama Chords & Tabs

 

Saqi Nama Chords & Tabs

Junoon Chords & Tabs

Version: 2 Type: Tab 0 ratings
1 star 2 stars 3 stars 4 stars 5 stars
comments

Saqi Nama Tab

   
Tabbed by Faisal Amin.


 Song: Saquie Nama
Music: Salman Ahmed
Lyris: Allama Iqbal

E-------------------------------------------------------------------|
B-------------------------------------------------------------------|
G--------------------------11-11h13---------------------------------|
D---7p6h7---9b11(9b11)-9s13----------13b14(13)-11s9---11s13-11s9-11-|
A-------------------------------------------------------------------|
E-------------------------------------------------------------------|
The second part is the same exept:

G--------11-13b14(13)-11----------------------------------|
D----9s13-----------------13-11-13b14-11s9-11b13-11p9-11--|

Then these chords are played:
(C#5add9) --0---  A* --2---| (please note that A* is not A)
          --0---     --2---|
          --8---     --2---|
          --6---     --2---|
          --4---     --0---|
          ------     ------|

 (C#5add9)            (A)        (B)          (C#5add9)
Zamane ke andaz badle gae, naya raag hai saaz badle gae.
 (A)         (B)        (C#m)      (B)       (A)        (E)
Kheerat ko ghulami se aazad kar, jawanon ko peeron ka ustad kar.
*the riff goes:
E--------------------------------------------------------------------------------------------|
B-----------------------------------------12-------------------------------------------------|
G-------------11h13--11b13---13-11--13-11-----15-14-11------11b12--11---------11-------------|
D----6s11b15--------------------------------------------15-------------15-11--11--15----11---|
A--------------------------------------------------------------------------------------------|
E--------------------------------------------------------------------------------------------|
[ Tab from: http://www.guitartabs.cc/tabs/j/junoon/saqi_nama_tab_ver_2.html ]
-----------------------------14------16b17--16s12--14b15-----14----14----12------------------|
---12-14--12h14------16--------------------------------------14----14----12------------------|
-----------------13------13------13----------------------------------------------------------|
---------------------------------------------------------------------------------------------|
---------------------------------------------------------------------------------------------|
---------------------------------------------------------------------------------------------|
 (G#m)              (B)            (A)               (E)
jigar se wohi teer phir paar kar tamana ko seenon me bedar kar.
  (B)           (C#m)            (G#m)     (B)      (A)
Javanon ko soze jigar baksh de, mera ishq meri nazar baksh de.

The solo:
E-------------------------------------------------------------------------------------------------|
B-----------------------------2p0------------------------------4p2p0--5p4-4--7p5-5-9p7-7-10p9-12--|
G--2p1-1--4p1--1--2p1-1-4p1-1-----2-2p1-1--4p1-1--2p1-1--4p1-1------------------------------------|
D-------------------------------------------------------------------------------------------------|
A-------------------------------------------------------------------------------------------------|
E-------------------------------------------------------------------------------------------------|

-------------12-------------------------12---------------------------12--14-12--14--16--19-19b21---|
---------12------14-14--------12---14--------14--14---------12---14--------------------------------|
----9s13-----------------13----------------------------13------------------------------------------|
---------------------------------------------------------------------------------------------------|
---------------------------------------------------------------------------------------------------|
---------------------------------------------------------------------------------------------------|

Have fun with this masterpiece.


Attention! this song is transcribed by Ahmad Usman Madni
usmanguy@hotmail.com
This tab is dedicated to Mohammad Ali Syed and Farrukh!

Am                G      F
Zamanay kay andaz badlay gaey
G               Am
Naya raag hay ; saaz  badlay gaey
Am                          G
Khirud ko ghulami say azaad karr
F                          Am
Jawanon ko peeron ka ustad karr
        (chorus repeat)
Am              G
Pila day mujyhay woh mae parda soz
F               Am
ki aati nahin fasl-e-gul roz roz
Am              G
woh mae jis say roshan zameer-e-hayat
F               Am    C
woh may jis say hay mastie kainat

         (repeat chorus)


Another version by Asad:

Dm                C      A#
Zamanay kay andaz badlay gaey
C                     Dm
Naya raag hay ; saaz  badlay gaey
A#           C         Dm
Khirud ko ghulami say azaad karr
C          A#         F      Dm
Jawanon ko peeron ka ustad karr


Usman Haroon
usmanh_81@yahoo.com
Comments