Junoon - Sajna Chords & Tabs

 

Sajna Chords & Tabs

Junoon Chords & Tabs

Version: 1 Type: Tab 0 ratings
1 star 2 stars 3 stars 4 stars 5 stars
comments

Sajna Tab

   
Sajna 
 
Transcribed by: my butt, bite it 


This song can be played in 
standard tuning, but if you want to sound *exactly* like the 
recording, then tune down a half-step (eb,Bb,Gb,Db,Ab,eb). 
I believe the song is in the key of C. 

Here's the order you play the riffs 
Riff 1 
Riff 2 
Riff 1 
Riff 3 
Riff 1 
Riff 2 
Riff 1 
Riff 4 
Riff 1 
Riff 2 
Riff 3 
Riff 1 
Riff 5 
Riff 1 


Riff 1. 
Ab G Cminor 
e--4--4--4---3--3--3---3------ 
B--4--4--4---3--3--3---4------ 
G--5--5--5---4--4--4---5------ 
D--6--6--6---5--5--5---5------ 
A--6--6--6---5--5--5---3------ 
E--4--4--4---3--3--3---3------ 
Duniya ko tukrahoon ga 

Riff 2. 
e------------------------------------------------- 
B------------------------------------------------- 
G-----------8----8h10------8h10p8----------------- 
D------8h10---10------------------10---8h10p8----- 
A--6/9----------------------------------------10-- 
E------------------------------------------------- 
[ Tab from: http://www.guitartabs.cc/tabs/j/junoon/sajna_tab.html ]
Riff 3. 
e------------------------------------------------- 
B--6/9-8----8----------8-------------------------- 
G--------8--10----8h10------8h10p8---------------- 
D----------------------------------10------------- 
A------------------------------------------------- 
E------------------------------------------------- 

Riff 4. 
e--13--11--------11--8-------8--8----------------- 
B--13--11h13p11--11--8h11p8--8--8h11p8------------ 
G--------------------------------------10--------- 
D------------------------------------------------- 
A------------------------------------------------- 
E------------------------------------------------- 

Riff 5. 
This part is not correct, I will post correction 
later. Play some harmonics :-) 
e--(13)------(11)--------(8)---------------------- 
B------(13)-------(11)-------(8)------------------ 
G------------------------------------------------- 
D------------------------------------------------- 
A------------------------------------------------- 
E-------------------------------------------------  

Usman Haroon
usmanh_81@yahoo.com
Comments