Junoon - Saeein Chords & Tabs

 

Saeein Chords & Tabs

Junoon Chords & Tabs

Version: 4 Type: Tab 0 ratings
1 star 2 stars 3 stars 4 stars 5 stars
comments

Saeein Tab

Song: Saeein
Group: Junoon

I couldn't find the lead parts for this song anywhere, so I gave it a shot
tabbing them out. There are probably some mistakes in this, but it's pretty
accurate. 

By the way, I tabbed this out on a guitar tuned down half a step so if your
guitar is in standard tuning just move everything down one fret.


Intro - 0:00 - 0:44
e--------------------------------------------------------|
B--------------------------------------------------------|
G--7b~~--r7---------7-8-7b~~--8~~-8\7-------7br----------|
D-----------9-8-\9--------------------9-8/9-----9-8br~~--|
A--------------------------------------------------------|
E--------------------------------------------------------|

e-------------------------------------|
B-------------------------------------|
G------------7-8-7b~~--7/8/10--10b~~--|
D--9p8\7-8-9--------------------------|
A-------------------------------------|
E-------------------------------------|

e------------------------------------------------|
B-10b-11br~~--11p9-------------------------------|
G-------------------10-11br--11\10p8-7-8br~~-----|
D------------------------------------------------|
A------------------------------------------------|
E------------------------------------------------|

2:06 - 2:26
e--------------------------------10b~~-r10-7-10~~--|
B--------------------------------------------------|
G--8~~-\7---7~~--------/7--------------------------|
D---------9------8-9~~----9-8~~--------------------|
A--------------------------------------------------|
E--------------------------------------------------|

e--------------------10----------|
B--11b~~--(12)-11h12----12-11~~--|
G--------------------------------|
D--------------------------------|
A--------------------------------|
E--------------------------------|

3:00 - 3:19
e---------------------------------------------------------|
B--------------------------------9h11-12-11~~--9----------|
G--7b~~--7h8--10~~--10p8--10b~~------------------11-11~~--|
D---------------------------------------------------------|
A---------------------------------------------------------|
E---------------------------------------------------------|

e----------------------------------------16b~~--18b~~--|
B--15b~~-r15-15h16--18~~--18brp16--18b~~---------------|
G------------------------------------------------------|
D------------------------------------------------------|
A------------------------------------------------------|
E------------------------------------------------------|
[ Tab from: http://www.guitartabs.cc/tabs/j/junoon/saeein_tab_ver_4.html ]
3:48 - 4:24
e--------------------------------------------------------------------------|
B--------------------------------------------------------------------------|
G----------7h8-10-10b~~--10brp8-10~~--10p8-10h11-10p8-10p8-10h11-10p8-7~~--|
D--9p8-8h9-----------------------------------------------------------------|
A--------------------------------------------------------------------------|
E--------------------------------------------------------------------------|

e-----------------------------------------------------------------|
B------------------------11-11-11-9-12-12-12-9-11-11-11-11-9------|
G-------------------------------------------------------------11--|
D--8h9-6h8-4h6-3h4------------------------------------------------|
A-----------------------------------------------------------------|
E-----------------------------------------------------------------|

e-----------------------------18-18-18-16-19-19-19-16-18-18-18-18-16-16------|
B--11-11-11-9-12-12-12-9-10b---------------------------------------------19--|
G----------------------------------------------------------------------------|
D----------------------------------------------------------------------------|
A----------------------------------------------------------------------------|
E----------------------------------------------------------------------------|

e--18-18-18-16-19-19-19-16-18---18b~~-18brp16-17b~~-17brp15-16b~~-16brp14-17b~~--|
B--------------------------------------------------------------------------------|
G--------------------------------------------------------------------------------|
D--------------------------------------------------------------------------------|
A--------------------------------------------------------------------------------|
E--------------------------------------------------------------------------------|

e--18b~~-18brp16-17b~~-17brp15-16b~~-16brp14-17b~~--|
B---------------------------------------------------|
G---------------------------------------------------|
D---------------------------------------------------|
A---------------------------------------------------|
E---------------------------------------------------|

e---------------------------------------------|
B--------9-------------------------9----9b~~--|
G--11-10---10-11-10-8-7-7----11-10---10-------|
D---------------------------------------------|
A---------------------------------------------|
E---------------------------------------------|

e--------16----------------------------16----16b~~--|
B--19-18----18-19-18-16-15-15----19-18----18--------|
G---------------------------------------------------|
D---------------------------------------------------|
A---------------------------------------------------|
E---------------------------------------------------|

4:54 - 5:11
e-----------------------------------------------------------|
B-----------------------------------------------------------|
G--8~~--7---7~~-------7--------/8~~--7---7~~-------7--------|
D---------9------/9~~---9-8~~----------9------/9~~---9-8~~--|
A-----------------------------------------------------------|
E-----------------------------------------------------------|

tabbed by Ahsan Rabbani
Any questions, comments, etc:  ahsan.rabbani@utoronto.ca
Comments