Junoon - Ne Heeray Chords & Tabs

 

Ne Heeray Chords & Tabs

Junoon Chords & Tabs

Version: 1 Type: Tab 0 ratings
1 star 2 stars 3 stars 4 stars 5 stars
comments

Ne Heeray Tab

   
Ne Heeray

x	-	mute with left hand (if you are a right handed guitarist)
h	-	hammer on (3h5 means hammer on from 3rd fret to 5th fret)
p	-	pull off (9p7 means pull off from 9th fret to 7th fret)
b	-	bend up/down (4b5 is bend up, 8b6 is bend down)
/	-	slide up (5/7 is a slide from the 5th fret to the 7th)
\	-	slide down (11\8 is a slide from the 11th fret to the 8th)

Intro
Main Riff 1
		Am		 Am
e ------------------------------------------------------------------
B --x--1----1----x--1----1----1----1---3b4b3-1----------------------
G --x--0h2--2----x--0h2--2----0h2--2-----------2--------------------
D --x--0h2--2----x--0h2--2----0h2--2--------------------------------
A -----0----0-------0----0----0----0--------------------------------
E ------------------------------------------------------------------

e ------------------------------------------------------------------
B --x--1----1----x--1----1----1----1---3b4b3-1----------------------
G --x--0h2--2----x--0h2--2----0h2--2-----------2--------------------
D --x--0h2--2----x--0h2--2----0h2--2--------------------------------
A -----0----0-------0----0----0----0--------------------------------
E ------------------------------------------------------------------

    Ne Heeray    Ne Heeray    Pallayen Na Kadi Sajna Noo	
e ------------------------------------------------------------------
B --x--1----1----x--1----1----1----1---3b4b3-1----------------------
G --x--0h2--2----x--0h2--2----0h2--2-----------2--------------------
D --x--0h2--2----x--0h2--2----0h2--2--------------------------------
A -----0----0-------0----0----0----0--------------------------------
E ------------------------------------------------------------------
[ Tab from: http://www.guitartabs.cc/tabs/j/junoon/ne_heeray_tab.html ]
    Ne Heeray    Ne Heeray    Chaddyen Na Kadi Sajna Noo
e ------------------------------------------------------------------
B --x--1----1----x--1----1----1----1---3b4b3-1----------------------
G --x--0h2--2----x--0h2--2----0h2--2-----------2--------------------
D --x--0h2--2----x--0h2--2----0h2--2--------------------------------
A -----0----0-------0----0----0----0--------------------------------
E ------------------------------------------------------------------

    Ne Heeray    Ne Heeray    Pallayen Na Kadi Sajna Noo
e ------------------------------------------------------------------
B --x--1----1----x--1----1----1----1---3b4b3-1----------------------
G --x--0h2--2----x--0h2--2----0h2--2-----------2--------------------
D --x--0h2--2----x--0h2--2----0h2--2--------------------------------
A -----0----0-------0----0----0----0--------------------------------
E ------------------------------------------------------------------

   Ne Heeray	Ne Heeray	Sanoo Pallayen Na Kadi
	G		   D
e ------------------------------------------------------------------
B -------------------3-----------Continue---------------------------
G ----0--------------2-------------with-----------------------------
D ----0--------------0------------Riff-1----------------------------
A ----2--------------0----------------------------------------------
E ----3-------------------------------------------------------------

(Riff 1 on verses)
Ne Heeray Ne Heeray Pallayen Na Kadi Sajna Noo
Ne Heeray Ne Heeray Chaddyen Na Kadi Sajna Noo
Ne Heeray Ne Heeray Pallayen Na Kadi Sajna Noo
Ne Heeray Ne Heeray Sanoo Pallayen Na Kadi

     A      G      Am	 G	
Sare Apne Paraey Pichani Tu
	  D	   Am	    G    Am
Main Wa Terate Meri Jawani Tu
     A        G        Am    G
Meri Turti Te Rab Di Nishani Tu
         D      Am       G    Am
Dekhein Ho Way Kadi Na Begani Tu

(Continue with same riff and scale) 
Ne Heeray
Sajheain Sajna De Dongay Ishary Ni
Kaliya Ra Ke Na Hunday Guzare Ni
Ranjha Aaya Ae Tere Dawary Ni
Jogi Ban Ke Ooa Tenoo Pukarey Ni
Ne Heeray

Note: The solo comes somewhere in the middle... I play it different each time because I 
keep improvising, but it follows on the same scale so it's not so hard.

Tabbed by: The Unaffectionate Nomster (TUN)
Any criticisms, corrections, and/or suggestions are welcome. 
Please e-mail me at: nomibaby@hotmail.com.
Comments