Junoon - Mukh Gae Ne Chords & Tabs

 

Mukh Gae Ne Chords & Tabs

Junoon Chords & Tabs

Version: 1 Type: Tab 0 ratings
1 star 2 stars 3 stars 4 stars 5 stars
comments

Mukh Gae Ne Tab

   
Mukh Gae Ne (Azaadi)

Sounded a little complicated to me at first, but once the riff is all cleared out it's 
pretty straightforward.

Intro

Guitar 1

e ------------------------------------------------------------------
B --------------3----------3---------3------------------------------
G -----------0----------0---------0---------0-----------------------
D -------1----------1---------1---------1---------------------------
A ----3-------------------------------------------------------------
E ------------------------------------------------------------------

e ------------------------------------------------------------------
B --------------3----------3---------3------------------------------
G -----------0----------0---------0---------0-----------------------
D -------1----------1---------1---------1---------------------------
A ----2-------------------------------------------------------------
E ------------------------------------------------------------------

e ------------------------------------------------------------------
B --------------1----------1---------1------------------------------
G -----------0----------0---------0---------0-----------------------
D -------1----------1---------1---------1---------------------------
A ----1-------------------------------------------------------------
E ------------------------------------------------------------------

e ------------------------------------------------------------------
B --------------1----------1---------1------------------------------
G -----------0----------0---------0---------0-----------------------
D -------1----------1---------1---------1---------------------------
A ----0-------------------------------------------------------------
E ------------------------------------------------------------------

Mukh gae ne... mukhi na judai yaar di

Guitar 2 does this:


e ------------------------------------------------------------------
B ------------------------------------------------------------------
G -----5b7b5--4b5b4----8b10b8--7b8b7--------------------------------
D ------------------------------------------------------------------
A ------------------------------------------------------------------
E ------------------------------------------------------------------

[ Tab from: http://www.guitartabs.cc/tabs/j/junoon/mukh_gae_ne_tab.html ]
Then after the verse, the intro line is repeated with a strummed riff:
 
Guitar 1
      Cm                G# 
e ----8-----8--8--------4-----4--4----------------------------------
B ----4-----4--4--------4-----4--4----------------------------------
G ----5-----5--5--------5-----5--5----------------------------------
D ------------------------------------------------------------------
A ------------------------------------------------------------------
E ------------------------------------------------------------------
      
      Cm                G
e ----8-----8--8--------3-----3--3----3-----------------------------
B ----4-----4--4--------3-----3--3----3-----------------------------
G ----5-----5--5--------4-----4--4----4--Rise strumming into chorus-
D ------------------------------------5-----------------------------
A ------------------------------------5-----------------------------
E ------------------------------------3-----------------------------

Chorus:The following are actual chords with minor adjustments in the middle, as shown below..

Sajna de.... 
      Cm             Bb              G#    G      Cm
e ----3-----3-4-3----1---1-1-1-1----4-4---3--x---3------------------
B ----4-----4-3-4----3---3-3-3-3----4-4---3--x---4------------------
G ----5-----5-5-5----3---3-3-3-3----5-5---4--x---5------------------
D ----5-----5-5-5----3---3-3-3-3----6-6---5--x---5------------------
A ----3-----3-3-3----1---1-1-1-1----6-6---5--x---3------------------
E ----------------------------------4-4---3----------------------------

.....main rondi rahi.....
      Cm (....contd.)
e ----3-----4-4-4-4---3---------------------------------------------
B ----4-----3-3-3-4---4---------------------------------------------
G ----5-----5-5-5-5---5---------------------------------------------
D ----5-----5-5-5-5---5---------------------------------------------
A ----3-----3-3-3-3---3---------------------------------------------
E ------------------------------------------------------------------


Then:
Baithi urii na main pal di gaee (!!??!!)
[sorry i dont understand punjabi, so i got no idea what he says]
      Bb                G  (2 times)
e ----1-- ~~~~~~~~ -----3--------------------------------------------
B ----3-- ~~~~~~~~ -----3--------------------------------------------
G ----3-- ~~~~~~~~ -----4--------------------------------------------
D ----3-- ~~~~~~~~ -----5--------------------------------------------
A ----1-- ~~~~~~~~ -----5--------------------------------------------
E ----------------------3--------------------------------------------


and thats it!!!

Have fun.

Tabbed by: The Unaffectionate Nomster (TUN)
Any criticisms, corrections, and/or suggestions are welcome.
Please e-mail me at: nomibaby@hotmail.com
Comments