Junoon - Mujhe Insaaf Do Chords & Tabs

 

Mujhe Insaaf Do Chords & Tabs

Junoon Chords & Tabs

Version: 2 Type: Tab 0 ratings
1 star 2 stars 3 stars 4 stars 5 stars
comments

Mujhe Insaaf Do Tab

Mujhe insaaf do

Here's the guitar riff at the start: Basically, just hold an Am.
[ Tab from: http://www.guitartabs.cc/tabs/j/junoon/mujhe_insaaf_do_tab_ver_2.html ]
--0----0-0-0----0-0-0-0-0-0-0-0-0----------------------|
--1----1-1-1----1-1-1-3-1-3-1-3-1----------------------|
--2----2-2-2----2-2-2-2-2-2-2-2-2----------------------|
--2----2-2-2----2-2-2-2-2-2-2-2-2----------------------|
--0----0-0-0----0-0-0-0-0-0-0-0-0----------------------|
-------------------------------------------------------|
                      ^^^^^^^^^^^
                 This part may seem tricky,
			but it really isn't. Just
			play an Am and place your 5th
			finger on the third fret every
			alternate stroke. Get it?


--0----0-0-0----0-0-0----------------------------------|
--1----1-1-1----1-1-1----------------------------------|
--2----2-2-2----2-2-2-0-0-0-0-0-0----------------------|
--2----2-2-2----2-2-2-2-2-2-2-2-2----------------------|
--0----0-0-0----0-0-0-2-2-2-2-2-2----------------------|
----------------------0-0-0-0-0-0----------------------|
			     ^^^^^^^^^^^
			Here, simply hold an Em.


Usman Haroon
usmanh_81@yahoo.com
Comments