Junoon - Khwaab Chords & Tabs

 

Khwaab Chords & Tabs

Junoon Chords & Tabs

Version: 2 Type: Tab 0 ratings
1 star 2 stars 3 stars 4 stars 5 stars
comments

Khwaab Tab

   
"Khwaab" - Junoon - Self Titled

Author: Khurram Farooq


|----------0-------|--------------0-----|----------------------|------0-----0--------|
|---------------0-h|--2-----------------|-------10----10-------|---------------------|
|------------------|-----------2--------|----11----------11----|---------1~~---1-/-2-|
|-------2----------|--------2-----------|----------11-------11-|---2-----------------|repeat
|----2-------------|-----0--------------|-9--------------------|---------------------|
|-0----------------|--------------------|----------------------|0--------------------|

Junoon- Khwab

              BY: FARRUKH AHMAD (junooni@rocketmail.com)
              icq no: 4338124


              INTRO: E | A | Fm | E


              E...............A
              DOOOR, JO AAJ HAIN
              KHWAB ADHORAY SAHI
              C#m..........A
              AAJ BHI MERI
              E...........A
              YAADAIN TERI

              Fm...............E
              YAAD AATAY TO HAIN
              KHWAB SAHARAY TO HAIN
              RAHIN ROKTI HAIN
              DAMAN KHECHTIN HAIN

              B.............A
              BHOOL CHUKAY, HAIN JO HAMAIN
              Fm.............E
              YAAD AATAY TO HAIN
[ Tab from: http://www.guitartabs.cc/tabs/j/junoon/khwaab_tab_ver_2.html ]
              E.............A.....F#m..........E
              SADION KAY FASLAY, AAJ HAIN DARMIAN
              HO JAIN MAGAR, JITNI BHI DOOORIAN

              SOLO:

e|--------------------------------------------9---------------|
B|--------------------------------9-9-9---------12p10-9-------|
G|--------------------9-----------------11p9-9----------------|
D|---------------9-11---11p10h11------------------------------|
A|--9/11--11-12-----------------------------------------------|
E|------------------------------------------------------------|


e|------------------9-7-9/17--17-17-17-17p16-14-19-17-16-14-16-17--16-14-------|
B|---------9-10-12-------------------------------------------------------------|
G|--8h9-11---------------------------------------------------------------------|
D|-----------------------------------------------------------------------------|
A|-----------------------------------------------------------------------------|
E|-----------------------------------------------------------------------------|


e|--14-12-11-9----9h11-------------------------------------------|
B|-------------12------10-9--------------------------------------|
G|--------------------------9\8/9--------------------------------|
D|---------------------------------------------------------------|
A|---------------------------------------------------------------|
E|---------------------------------------------------------------|

Usman Haroon
usmanh_81@yahoo.com
Comments