Junoon - Khudi Solo Chords & Tabs

 

Khudi Solo Chords & Tabs

Junoon Chords & Tabs

Version: 1 Type: Tab 0 ratings
1 star 2 stars 3 stars 4 stars 5 stars
comments

Khudi Solo Tab

   
Khudi

Tabbed by Faisal Amin

Lyrics: Alama Iqbal
Music: Salman Ahmed

Start the song with some strumming:
Strokes:
    d  u d u  d u d u  d u  
e---0--0-0-0--0-0-0-0--0-0------ 
b---3--3-3-3--3-3-3-3--3-3------ 
g---4--4-4-4--4-4-4-4--4-4------ 
d---4--4-4-4--4-4-4-4--4-4------ 
a---2--2-2-2--x-x-x-x--x-x------ 
e-------------3-3-3-3--2-2------
(khudi...... ko kar........ (repeat the chords)

when you fret the G and F# notes with your first finger,use the rest of it to mute the A string.

  d                A
(ke har taqdeer se pehle)      D      A
khuda bande se khud pooche... Bataaaaaaaa.. teri raza kya hai.
 B          A           E            A          
Sitaron se aage jahaan aur bhi hain aur bhi hain
 B             A           E         A
abhi ishq ke imtihaan aur bhi hain
Sitaron se.....                            D
abhi ishq ke imtihaan aur bhi hain....aur bhi hain
 
Khudi ko kar......
The solo: (rythm is: B A E A)
e-------------------------------------------------------
b-------------------------------------------------------
g-------------------13b14----13p11----11----------------
d----9---9s11----------------------14-------------------
a-------------12-11-------------------------------------
e-------------------------------------------------------


---------------11-12-11---11--12--11----11-12s14--------
-------------12----------12-----------12----------------
----9s11--14--------------------------------------------
--------------------------------------------------------
--------------------------------------------------------
--------------------------------------------------------
[ Tab from: http://www.guitartabs.cc/tabs/j/junoon/khudi_solo_tab.html ]
-16b17--14--16b17--14-16--14--16s19---------------------
--------------------------------------------------------
--------------------------------------------------------
--------------------------------------------------------
--------------------------------------------------------
--------------------------------------------------------

--------------------------------------------------------
---4p2-0---4p2-0-4p2-0--4p2-0--4p2-0--5p4-0-5p4-0-5p4-0-
--------------------------------------------------------
--------------------------------------------------------
--------------------------------------------------------
--------------------------------------------------------

---------------4p2-0--4p2-0-4p2-0--4p2-0-4p2-0-4s9-7----
-5p4-0--5p4-0-------------------------------------------
--------------------------------------------------------
--------------------------------------------------------
--------------------------------------------------------
--------------------------------------------------------

------9-7----------------4h5p4----------4-5-4-----------
--9-7-----9-7-------4-7---------7--4-7---------7-4------
--------------------------------------------------------
--------------------------------------------------------
--------------------------------------------------------
--------------------------------------------------------

-------9h11p9-----------9-11--9--------11b12--12-12-12--
--9-12---------12--9-12----------12-9-------------------
--------------------------------------------------------
--------------------------------------------------------
--------------------------------------------------------
--------------------------------------------------------

-11--9----12---12---------------------------------------
----------12---12---------------------------------------
--------------------------------------------------------
--------------------------------------------------------
--------------------------------------------------------
--------------------------------------------------------


Usman Haroon
usmanh_81@yahoo.com
Comments