Junoon - Bulleya Chords & Tabs

 

Bulleya Chords & Tabs

Junoon Chords & Tabs

Version: 1 Type: Tab 0 ratings
1 star 2 stars 3 stars 4 stars 5 stars
comments

Bulleya Tab

Bulleya

e---------- 
B---------- 
G-------0-2 
D-0-0-3---- 
A---------- 
E---------- 

e---------- 
B---------- 
G---2--0--2 
D0---3----- 
A---------- 
E---------- 

e---------- 
B---------- 
G-------0-- 
D-0-0-3---2 
A---------- 
A---------- 

e---------- 
B---------- 
G-------0-2 
D-0-0-3---- 
A---------- 
E---------- 
[ Tab from: http://www.guitartabs.cc/tabs/j/junoon/bulleya_tab.html ]
e---------- 
B---------1 
G-------0-- 
D-0-0-3---- 
A---------- 
E---------- 

e---------- 
B---------- 
G---2--0--2 
D0---3----- 
A---------- 
E---------- 

e---------- 
B---------- 
G-------0-- 
D-0-0-3---2 
A---------- 
A---------- 

e---------- 
B---------- 
G-------0-2 
D-0-0-3---- 
A---------- 
E---------- 
 

Usman Haroon
usmanh_81@yahoo.com
Comments